DEVAMELODICA [DOT] COM

tongkrongannya remaja gaul

Random Post
Profil Biodata dan Foto Terbaru Rio Haryanto Manor racing F1

Profil Biodata dan Foto Terbaru Rio Haryanto Manor racing F1

Profil Biodata dan Foto Terbaru Rio Haryanto Manor racing F1 – Indonesia harus berbangga karena tahun 2016 ini Rio Haryanto menjadi salah satu wakil Asia […]

Selengkapnya »

Tablature dan melodi gitar Almost Easy Avenged Sevenfold

Gtr I (C# G# C# F# A# D#) - 'Rhythm Guitar I'
Gtr II (C# G# C# F# A# D#) - 'Rhythm Guitar II'
Gtr III (C# G# C# F# A# D#) - 'Lead Guitar I'
Gtr IV (C# G# C# F# A# D#) - 'Piano'
Gtr V (C# G# C# F# A# D#) - 'Lead Guitar II'


 Intro
  Q=174
  C#5                           B5
 4/4
  Gtrs I, II
  E E E E E E  E E   E E E E     E  E E  E     E  E  E  E E  E  E E
|------------------|-----------------------|------------------------|
|------------------|-----------------------|------------------------|
|-7-7-7-7-7-7--7-7-|-7-7-7-7-----5--5-5--5-|---5--5--5--5-5--5--5-5-|
|-7-7-7-7-7-7--7-7-|-7-7-7-7-----5--5-5--5-|---5--5--5--5-5--5--5-5-|
|-5-5-5-5-5-5--5-5-|-5-5-5-5-----3--3-3--3-|---3--3--3--3-3--3--3-3-|
|------------------|-----------------------|------------------------|
|
| Gtr III
| W                  H        a  Q.      E    +Q     Q.      Q.
|------------------|---------10s13------12-|-(12)-------------------|
|------------------|-----------------------|--------13--------------|
|------------------|-----------------------|----------------14------|
|------------------|-----------------------|------------------------|
|------------------|-----------------------|------------------------|
|------------------|-----------------------|------------------------|
|
| Gtr IV
| E Q   Q   E  Q     Q   Q       E  Q    E    +E  E  Q    Q     Q
|---6---5-----10---|-6---5----------6----5-|--(5)---10----6-----5---|
|------------------|-----------------------|------------------------|
|------------------|-----------------------|------------------------|
|------------------|-----------------------|------------------------|
|-5---------5------|-------------5---------|------5-----------------|
|------------------|-----------------------|------------------------|

  F#5
   E E   E     E   E     E   E  E
|---------------------------------|
|---------------------------------|
|---------------------------------|
|--5-5---5-----5---5-----5---5--5-|
|--5-5---5-----5---5-----5---5--5-|
|--5-5---5-----5---5-----5---5--5-|
|
|        \0.5/     \0.5/
|  ~~                        ~~~~~~
|  Q    +Q        +Q        +Q
|---------------------------------|
|-15---(15)------(15)------(15)---|
|---------------------------------|
|---------------------------------|
|---------------------------------|
|---------------------------------|
|
|  E Q         Q         E   Q
|----6---------5------------10----|
|---------------------------------|
|---------------------------------|
|---------------------------------|
|--5---------------------5--------|
|---------------------------------|

                    A5                  B5
    E  E E   E       E  E E  E     E  E  E  E E  E  E E
|------------------------------|------------------------|
|------------------------------|------------------------|
|------------------------------|---------5--5-5--5--5-5-|
|---5--5-5---5-------8--8-8--8-|---8--8--5--5-5--5--5-5-|
|---5--5-5---5-------8--8-8--8-|---8--8--3--3-3--3--3-3-|
|---5--5-5---5-------8--8-8--8-|---8--8-----------------|
|
|~~~~~~
|  +Q.      +E    a  Q.      E    +Q     Q.      Q.
|----------------10s13------12-|-(12)-------------------|
|-(15)-----(15)\---------------|--------13--------------|
|------------------------------|----------------14------|
|------------------------------|------------------------|
|------------------------------|------------------------|
|------------------------------|------------------------|
|
|   Q    Q           E  Q    E    +E  E  Q    Q     Q
|---6----5--------------6----5-|--(5)---10----6-----5---|
|------------------------------|------------------------|
|------------------------------|------------------------|
|------------------------------|------------------------|
|--------------------5---------|------5-----------------|
|------------------------------|------------------------|

  C#5                                B5
   E  E E E E E  E E     E  E E E     E  E E  E     E  E  E  E E  E  E E
|--------------------|--------------------------|------------------------|
|--------------------|--------------------------|------------------------|
|--7--7-7-7-7-7--7-7-|---7--7-7-7-----5--5-5--5-|---5--5--5--5-5--5--5-5-|
|--7--7-7-7-7-7--7-7-|---7--7-7-7-----5--5-5--5-|---5--5--5--5-5--5--5-5-|
|--5--5-5-5-5-5--5-5-|---5--5-5-5-----3--3-3--3-|---3--3--3--3-3--3--3-3-|
|--------------------|--------------------------|------------------------|
|
|  \1
|  W                    +Q.     E  a  Q.      E    +Q     Q.      Q.
|-18-----------------|-(18)-----x-12h13------12-|-(12)-------------------|
|--------------------|--------------------------|--------13--------------|
|--------------------|--------------------------|----------------14------|
|--------------------|--------------------------|------------------------|
|--------------------|--------------------------|------------------------|
|--------------------|--------------------------|------------------------|
|
|  E  Q   Q   E  Q       Q    Q       E  Q    E    +E  E  Q    Q     Q
|-----6---5-----10---|---6----5----------6----5-|--(5)---10----6-----5---|
|--------------------|--------------------------|------------------------|
|--------------------|--------------------------|------------------------|
|--------------------|--------------------------|------------------------|
|--5----------5------|----------------5---------|------5-----------------|
|--------------------|--------------------------|------------------------|

  F#5                                            A5
   E E   E     E E   E   E E     E  E E E     E   E E  E
|----------------------------|---------------------------|
|----------------------------|---------------------------|
|----------------------------|---------------------------|
|--5-5---5-----5-5---5---5-5-|---5--5-5-5-----8---8-8--8-|
|--5-5---5-----5-5---5---5-5-|---5--5-5-5-----8---8-8--8-|
|--5-5---5-----5-5---5---5-5-|---5--5-5-5-----8---8-8--8-|
|
|  Q    +Q.         +Q.         +H         a  Q.       E
|----------------------------|------------10s13-------12-|
|-15---(15)b17-----(15)------|-(15)----------------------|
|----------------------------|---------------------------|
|----------------------------|---------------------------|
|----------------------------|---------------------------|
|----------------------------|---------------------------|
|
|  E Q         Q     E   Q       Q    Q       E   Q    E
|----6---------5--------10---|---6----5----------13---12-|
|----------------------------|---------------------------|
|----------------------------|---------------------------|
|----------------------------|---------------------------|
|--5-----------------5-------|----------------5----------|
|----------------------------|---------------------------|

                  B5
    E   E      E  E  E  E   E E
|-------------------------------||
|-------------------------------||
|--------------5--5--5--5---5-5-||
|---8---8------5--5--5--5---5-5-||
|---8---8------3--3--3--3---3-3-||
|---8---8-----------------------||
|
|  +E   E   a  Q.       Q.
|-(12)-12\-15s18-------17\------||
|-------------------------------||
|-------------------------------||
|-------------------------------||
|-------------------------------||
|-------------------------------||
|
|  +E   E      Q     Q      Q
|-(12)--------18----17-----15---||
|-------------------------------||
|-------------------------------||
|-------------------------------||
|-------5-----------------------||
|-------------------------------||

 Pre Verse
  C#5   N.C.            D5  C5    C5A5    C5
  Gtr I
          PM----------|       PM|     PM|
    Q     E  E   E  E E E   E E E E E E E E
|-------------------------|-----------------|
|-------------------------|-----------------|
|---7\--------------------|-----------------|
|---7\------------------8S|=6-----6S3-----6-|
|---5\------------------6S|=4-----4S1-----4-|
|---------0--0---0--0-0---|---0-0-----0-0---|
|
| Gtr II
|         PM----------|       PM|     PM|
|   Q     E  E   E  E E E   E E E E E E E E
|-------------------------|-----------------|
|-------------------------|-----------------|
|---7\--------------------|-----------------|
|---7\------------------8S|=6-----6S3-----6-|
|---5\------------------6S|=4-----4S1-----4-|
|---------0--0---0--0-0---|---0-0-----0-0---|
|
| Gtr III
|   Q     Q      Q    Q     W
|-/17\--/17\---/17\-------|-----------------|
|-------------------------|-----------------|
|-------------------------|-----------------|
|-------------------------|-----------------|
|-------------------------|-----------------|
|-------------------------|-----------------|

  C#5 N.C.
      PM------------------|         PM----|
  Q   E E E E E E   S S S S S S S S S S S S S  S S S
|-----------------|------------------------------------|
|-----------------|------------------------------------|
|-----------------|------------------------------------|
|-7\--------------|------------------------------------|
|-5\--------------|------------------------------------|
|-----0-0-0-0-0-0-|-0-0-0-0-7h8p7h8-0-0-0-0-8h10-8p7---|
|
|     PM------------------|         PM----|
| Q   E E E E E E   S S S S S S S S S S S S S  S S S
|-----------------|------------------------------------|
|-----------------|------------------------------------|
|-----------------|------------------------------------|
|-7\--------------|------------------------------------|
|-5\--------------|------------------------------------|
|-----0-0-0-0-0-0-|-0-0-0-0-3h5h7p5-0-0-0-0-5h=7-8p3---|
|
| W                 W
|-----------------|------------------------------------|
|-----------------|------------------------------------|
|-----------------|------------------------------------|
|-----------------|------------------------------------|
|-----------------|------------------------------------|
|-----------------|------------------------------------|

  C#5           D5  C5    C5A5    C5  C#5
  Gtrs I, II
      PM------|       PM|     PM|         PM--------------------------|     ~
  Q   E E E E E E   E E E E E E E E   Q   E E E E E E   S S S S S S S S E E Q
|-----------------|-----------------|-----------------|-----------------------||
|-----------------|-----------------|-----------------|-----------------------||
|-7\--------------|-----------------|-----------------|-----------------------||
|-7\------------8S|=6-----6S3-----6-|-7\--------------|-----------------------||
|-5\------------6S|=4-----4S1-----4-|-5\--------------|-----------------------||
|-----0-0-0-0-0---|---0-0-----0-0---|-----0-0-0-0-0-0-|-0-0-0-0-0-0-0-0-7h8p7-||

   Verse
    $
    C#5
    Gtrs I, II
       PM--------|      PM--------|
    Q  E E E E E E   Q  E E E E E E
||-----------------|----------------|
||o----------------|----------------|
||-----------------|----------------|
||--0--------------|-0--------------|
||o-0--0-0-0-0-0-0-|-0--0-0-0-0-0-0-|
||--0--0-0-0-0-0-0-|-0--0-0-0-0-0-0-|

                   N.C.
     PM--------------------------|     ~
  Q  E E E E E E   S S S S S S S S E E Q
|----------------|-------------------------||
|----------------|------------------------o||
|----------------|-------------------------||
|-0--------------|-------------------------||
|-0--0-0-0-0-0-0-|------------------------o||
|-0--0-0-0-0-0-0-|-0-0-0-0-0-0-0-0-7h8p7---||

  C#5
     PM------------|      PM------------|
  Q  S S E S S E E E   Q  S S E S S E E E
|--------------------|--------------------|
|--------------------|--------------------|
|--------------------|--------------------|
|-0------------------|-0------------------|
|-0--0-0-0-0-0-0-0-0-|-0--0-0-0-0-0-0-0-0-|
|-0--0-0-0-0-0-0-0-0-|-0--0-0-0-0-0-0-0-0-|

                       N.C.
     PM------------------------------|     ~
  Q  S S E S S E E E   S S S S S S S S E E Q
|--------------------|------------------------|
|--------------------|------------------------|
|--------------------|------------------------|
|-0------------------|------------------------|
|-0--0-0-0-0-0-0-0-0-|------------------------|
|-0--0-0-0-0-0-0-0-0-|-0-0-0-0-0-0-0-0-7h8p7--|

  C#5                                                N.C.
     PM--------|      PM--------|      PM--------------------------|
  Q  E E E E E E   Q  E E E E E E   Q  E E E E E E   S S S S S S S S E E Q
|----------------|----------------|----------------|-----------------------||
|----------------|----------------|----------------|-----------------------||
|----------------|----------------|----------------|-----------------------||
|-0--------------|-0--------------|-0--------------|-----------------------||
|-0--0-0-0-0-0-0-|-0--0-0-0-0-0-0-|-0--0-0-0-0-0-0-|-----------------------||
|-0--0-0-0-0-0-0-|-0--0-0-0-0-0-0-|-0--0-0-0-0-0-0-|-0-0-0-0-0-0-0-0-7h8p7-||

 Pre Chorus
  C#5  C#N.C.B         N.C.E5    N.C.  E5        N.C.C#m          Cm
  Gtr I
     PM  PM|           PM|       PM|             PM|
  Q  E E E E E E   E E E E  E  E E E    Q   E  E E E Q    E E E E Q  E E
|----------------|-------------------|------------------|-----------------|
|----------------|-------------------|------------------|-----------------|
|----------------|-------------------|------------------|-----------------|
|------7-----2-2-|-2-2-----10-10-----|-10--10-10-----3--|-3-3-----2--2-2--|
|-0----5-----3-3-|-3-3------8--8-----|--8---8--8-----5--|-5-5-----4--4-4--|
|-0--0---5-2-----|-----0-0-------8-8-|-----------7-5----|-----0-0---------|
|
| Gtr II
|    PM  PM|           PM|       PM|             PM|          PM|
| Q  E E E E E E   E E E E  E  E E E    Q   E  E E E Q    E E E E Q  E E
|----------------|-------------------|------------------|-----------------|
|----------------|-------------------|------------------|-----------------|
|----------------|-------------------|---------------7--|-7-7-----6--6-6--|
|------7-----5-5-|-5-5-----10-10-----|-10--10-10-----x--|-x-x-----x--x-x--|
|-0----5-----3-3-|-3-3------8--8-----|--8---8--8-----5--|-5-5-----4--4-4--|
|-0--0---5-2-----|-----0-0-------8-8-|-----------7-5----|-----0-0---------|

  C#5  C#5   B             E5            E5            C#m/E         Cm/Eb
     PM  PM|           PM|        PM|              PM|
  Q  E E E E E E   E E E E  E  E  E  E    Q   E  E E E Q     H       Q   Q
|----------------|---------------------|-------------------|------------------|
|----------------|---------------------|-------------------|------------------|
|----------------|---------------------|-------------------|------------------|
|------7-----2-2-|-2-2-----10-10-------|-10--10-10-----3---|-3-------2---2----|
|-0----5-----3-3-|-3-3------8--8-------|--8---8--8-----5---|-5-------4---4----|
|-0--0---0-0-----|-----0-0--------8--8-|-----------7-5-3---|-3-------2---2----|
|
|    PM  PM|           PM|        PM|              PM|
| Q  E E E E E E   E E E E  E  E  E  E    Q   E  E E E E E   E E E E E E E E
|----------------|---------------------|-------------------|------------------|
|----------------|---------------------|-------------------|------------------|
|------------9-9-|-9-9-----10-10-------|-14--12-10-----7-7-|-7-7-7-7-6-6-6-6--|
|------7-----x-x-|-x-x------x--x-------|--x---x--x-----x-x-|-x-x-x-x-x-x-x-x--|
|-0----5-----7-7-|-7-7------8--8-------|-12--10--8-----5-5-|-5-5-5-5-4-4-4-4--|
|-0--0---0-0-----|-----0-0-------12-12-|-----------x-x-----|------------------|

 Chorus
  E5
  Gtrs I, II
   Q   E  E  Q   Q       Q   E  Q    E  E  E
|---------------------|----------------------|
|---------------------|----------------------|
|---------------------|----------------------|
|--3---3--3--3---3----|--3---3--3----3--3--3-|
|--3---3--3--3---3----|--3---3--3----3--3--3-|
|--3---3--3--3---3----|--3---3--3----3--3--3-|
|
| Gtr III
|  Q   E  E  Q   E  E    Q   E  E  Q    E  E
|---------------------|----------------------|
|---------------------|----------------------|
|-10--10-10-12--12-12-|-14--14-14-12---12-12-|
|---------------------|----------------------|
|--8---8--8-10--10-10-|-12--12-12-10---10-10-|
|---------------------|----------------------|

  B5/E                  E5
   Q   E  E  Q   Q       Q   E  Q    E  E  E
|---------------------|-----------------------|
|---------------------|-----------------------|
|---------------------|-----------------------|
|--5---5--5--5---5----|--3---3--3----3--3--3--|
|--3---3--3--3---3----|--3---3--3----3--3--3--|
|--3---3--3--3---3----|--3---3--3----3--3--3--|
|
|  Q   E  E  Q   E  E    Q   E  E  Q    E  E
|---------------------|-----------------------|
|---------------------|-----------------------|
|-10--10-10-14--14-14-|-12--12-12-14---14-14--|
|---------------------|-----------------------|
|--8---8--8-12--12-12-|-10--10-10-12---12-12--|
|---------------------|-----------------------|

                                                                     To Coda
  C#5
  Q  E E Q  Q     Q  E Q    E  E  E    Q   E  E  Q   Q       Q   E  Q   E E E
|---------------|-------------------|---------------------|--------------------|
|---------------|-------------------|---------------------|--------------------|
|---------------|-------------------|---------------------|--------------------|
|-0--0-0-2--2---|-0--0-0----0--0--0-|--0---0--0--0---0----|--0---0--0---0-0-0--|
|-0--0-0-0--0---|-0--0-0----0--0--0-|--0---0--0--0---0----|--0---0--0---0-0-0--|
|-0--0-0-0--0---|-0--0-0----0--0--0-|--0---0--0--0---0----|--0---0--0---0-0-0--|
|
| Q  E E Q  E E   Q  E E  Q    E  E    Q   E  E  Q   E  E    Q   E  E E E E E
|---------------|-------------------|---------------------|--------------------|
|---------------|-------------------|---------------------|--------------------|
|-7--7-7-9--9-9-|-7--7-7-10---10-10-|-14--14-14-12--12-12-|-10--10-10-9-9-9-9--|
|---------------|-------------------|---------------------|--------------------|
|-5--5-5-7--7-7-|-5--5-5--8----8--8-|-12--12-12-10--10-10-|--8---8--8-7-7-7-7--|
|---------------|-------------------|---------------------|--------------------|

          D.S. al Coda
  N.C.
  Gtr I
  PM------------|     ~
  S S S S S S S S E E Q
|------------------------||
|------------------------||
|------------------------||
|------------------------||
|------------------------||
|-0-0-0-0-0-0-0-0-7h8p7--||
|
| Gtr II
| PM------------|     ~
| S S S S S S S S E E Q
|------------------------||
|------------------------||
|------------------------||
|------------------------||
|------------------------||
|-0-0-0-0-0-0-0-0-7h8p7--||

 Chorus Part II
  &
  E5
  Gtrs I, II
   Q   E  E  E E  E  E    Q   E  E  E E  E  E
|----------------------|----------------------|
|----------------------|----------------------|
|----------------------|----------------------|
|--3---3--3--3-3--3--3-|--3---3--3--3-3--3--3-|
|--3---3--3--3-3--3--3-|--3---3--3--3-3--3--3-|
|--3---3--3--3-3--3--3-|--3---3--3--3-3--3--3-|
|
| Gtr III
|  Q   E  E  Q    E  E    Q   E  E  Q    E  E
|----------------------|----------------------|
|----------------------|----------------------|
|-10--10-10-12---12-12-|-14--14-14-12---12-12-|
|----------------------|----------------------|
|--8---8--8-10---10-10-|-12--12-12-10---10-10-|
|----------------------|----------------------|

  B5/E                   E5
   Q   E  E  E E  E  E    Q   E  E  E E  E  E
|----------------------|-----------------------|
|----------------------|-----------------------|
|----------------------|-----------------------|
|--5---5--5--5-5--5--5-|--3---3--3--3-3--3--3--|
|--3---3--3--3-3--3--3-|--3---3--3--3-3--3--3--|
|--3---3--3--3-3--3--3-|--3---3--3--3-3--3--3--|
|
|  Q   E  E  Q    E  E    Q   E  E  Q    E  E
|----------------------|-----------------------|
|----------------------|-----------------------|
|-10--10-10-14---14-14-|-12--12-12-14---14-14--|
|----------------------|-----------------------|
|--8---8--8-12---12-12-|-10--10-10-12---12-12--|
|----------------------|-----------------------|

  D5
  Q  E E E E E E   Q  E E  E E  E  E
|----------------|-------------------|
|----------------|-------------------|
|----------------|-------------------|
|-0--0-0-0-0-0-0-|-0--0-0--0-0--0--0-|
|-0--0-0-0-0-0-0-|-0--0-0--0-0--0--0-|
|-0--0-0-0-0-0-0-|-0--0-0--0-0--0--0-|
|
| Q  E E Q   E E   Q  E E  Q    E  E
|----------------|-------------------|
|----------------|-------------------|
|-7--7-7-9---9-9-|-7--7-7-10---10-10-|
|----------------|-------------------|
|-5--5-5-7---7-7-|-5--5-5--8----8--8-|
|----------------|-------------------|

   Q   E  E  E E  E  E    Q   E  E E E E E
|----------------------|--------------------|
|----------------------|--------------------|
|----------------------|--------------------|
|--0---0--0--0-0--0--0-|--0---0--0-0-0-0-0--|
|--0---0--0--0-0--0--0-|--0---0--0-0-0-0-0--|
|--0---0--0--0-0--0--0-|--0---0--0-0-0-0-0--|
|
|  Q   E  E  Q    E  E    Q   E  E E E E E
|----------------------|--------------------|
|----------------------|--------------------|
|-14--14-14-12---12-12-|-10--10-10-9-9-9-9--|
|----------------------|--------------------|
|-12--12-12-10---10-10-|--8---8--8-7-7-7-7--|
|----------------------|--------------------|

  N.C.
  Gtrs I, II
  PM------------|     ~
  S S S S S S S S E E Q
|-----------------------||
|-----------------------||
|-----------------------||
|-----------------------||
|-----------------------||
|-0-0-0-0-0-0-0-0-7h8p7-||

 Pre Solo
  C#5   N.C.    D5  C5N.C.C5A5N.C.C5  C#5   N.C.
  Gtr I
      PM------|       PM|     PM|         PM-----------
  Q   E E E E E E   E E E E E E E E   Q   E E E E E E
|-----------------|-----------------|-----------------|
|-----------------|-----------------|-----------------|
|-7\--------------|-----------------|-----------------|
|-7\------------8S|=6-----6S3-----6-|-7\--------------|
|-5\------------6S|=4-----4S1-----4-|-5\--------------|
|-----0-0-0-0-0---|---0-0-----0-0---|-----0-0-0-0-0-0-|
|
| Gtr II
|     PM------|       PM|     PM|         PM-----------
| Q   E E E E E E   E E E E E E E E   Q   E E E E E E
|-----------------|-----------------|-----------------|
|-----------------|-----------------|-----------------|
|-7\--------------|-----------------|-----------------|
|-7\------------8S|=6-----6S3-----6-|-7\--------------|
|-5\------------6S|=4-----4S1-----4-|-5\--------------|
|-----0-0-0-0-0---|---0-0-----0-0---|-----0-0-0-0-0-0-|
|
| Gtr V
| W                 W                 W
|-----------------|-----------------|-----------------|
|-----------------|-----------------|-----------------|
|-----------------|-----------------|-----------------|
|-----------------|-----------------|-----------------|
|-----------------|-----------------|-----------------|
|-----------------|-----------------|-----------------|

 -------|         PM----|
  S S S S S S S S S S S S S  S S S
|------------------------------------|
|------------------------------------|
|------------------------------------|
|------------------------------------|
|------------------------------------|
|-0-0-0-0-7h8p7h8-0-0-0-0-8h10-8p7---|
|
|-------|         PM----|
| S S S S S S S S S S S S S  S S S
|------------------------------------|
|------------------------------------|
|------------------------------------|
|------------------------------------|
|------------------------------------|
|-0-0-0-0-3h5h7p5-0-0-0-0-5h=7-8p3---|
|
| W
|------------------------------------|
|------------------------------------|
|------------------------------------|
|------------------------------------|
|------------------------------------|
|------------------------------------|

  C#5           D5  C5    C5A5    C5
  Gtrs I, II
      PM------|       PM|     PM|
  Q   E E E E E E   E E E E E E E E
|-----------------|-----------------|
|-----------------|-----------------|
|-7\--------------|-----------------|
|-7\------------8S|=6-----6S3-----6-|
|-5\------------6S|=4-----4S1-----4-|
|-----0-0-0-0-0---|---0-0-----0-0---|
|
| Gtr V
| W                 W
|-----------------|-----------------|
|-----------------|-----------------|
|-----------------|-----------------|
|-----------------|-----------------|
|-----------------|-----------------|
|-----------------|-----------------|

  C#5 N.C.
      PM--------------------------|             ~
  Q   E E E E E E   S S S S S S S S       E   E Q
|-----------------|--------------------------------||
|-----------------|--------------------------------||
|-----------------|--------------------------------||
|-7\--------------|--------------------------------||
|-5\--------------|--------------------------------||
|-----0-0-0-0-0-0-|-0-0-0-0-0-0-0-0-------7h==8p7--||
|
| W                 H                a    H
|-----------------|--------------------------------||
|-----------------|--------------------------------||
|-----------------|--------------------------------||
|-----------------|-----------------(7)s(15)\------||
|-----------------|--------------------------------||
|-----------------|--------------------------------||

 Guitar Solo I
  C#5                    N.C.               C#5                    N.C.
        PM|                                       PM|
   E    E E   E  S S S S S S    S    S       E    E E E   S  S S S S S S S
|-----------------------------------------|--------------------------------|
|-----------------------------------------|--------------------------------|
|-----------------------------------------|--------------------------------|
|--0----------0---------------------------|--0--------0--------------------|
|--0----------0---------------------------|--0--------0--------------------|
|--0----0-0---0--0-0-0-0-5-8----7----5----|--0----0-0-0---0--0-0-0-8-7-5-7-|
|
|             ~~~~                                        ~~~~
|                               |---3---|
|  Q.        +H              a  S  S    S    H           +H
|-----------------------------------------|--------------------------------|
|-12b14-----(12)---------------15p12------|--------------------------------|
|----------------------------x---------12-|--------------------------------|
|-----------------------------------------|-15b17-------(15)---------------|
|-----------------------------------------|--------------------------------|
|-----------------------------------------|--------------------------------|

  E5    F#5         G#5                    E5          F#5       A5        G#5
   E     Q           E      Q   Q           Q           Q        Q         Q
|----------------------------------------|----------------------------------------------|
|----------------------------------------|----------------------------------------------|
|----------------------------------------|----------------------------------------------|
|----------------------------------------|----------------------------------------------|
|--3-----5-----------7------7---7--------|--3-----------5--------8---------7------------|
|--3-----5-----------7------7---7--------|--3-----------5--------8---------7------------|
|
|                                                                              ~~~~
|  S  S  S  S  S  S  E     +Q.      S  S    S  S  S  S  S  Q.       +E        +E   +S
|----------------13-17b18-(17)----/20h22p|=17-------------------------------------------|
|-------------15-------------------------|----18----------------------------------------|
|----------14----------------------------|-------19-------------------------------------|
|----13-15-------------------------------|----------19----19pb20r==(19)b21r==(19)-(19)\-|
|-15-------------------------------------|-------------20-------------------------------|
|----------------------------------------|----------------------------------------------|

  C#5                                         N.C.C#5
         PM---|
   E     E     E     E    S S S S S S   S     S
|-----------------------------------------------|
|-----------------------------------------------|
|-----------------------------------------------|
|--0-----------------0--------------------------|
|--0-----------------0--------------------------|
|--0-----0-----0-----0----0-0-0-0-5-8---7-----5-|
|
|  S  S  S  S  S  S  H                 +E
|-17h18p17----------15b17r============(15)b17---|
|----------18p15--------------------------------|
|----------------14-----------------------------|
|-----------------------------------------------|
|-----------------------------------------------|
|-----------------------------------------------|

                                               N.C.     E5                G#5  G#5
         PM---|
   E     E     E      E    S S S S   S     S S S         E     Q           E    Q      Q
|-----------------------------------------------------|-----------------------------------------|
|-----------------------------------------------------|-----------------------------------------|
|-----------------------------------------------------|-----------------------------------------|
|--0------------------0-------------------------------|-----------------------------------------|
|--0------------------0-------------------------------|--3-----5-----------7----7------7--------|
|--0-----0-----0------0----0-0-0-0---8-----7-5-7------|--3-----5-----------7----7------7--------|
|
|  S  S  S  S  S  S   Q.            +Q             a     S  S  S  S  S  S  Q       +Q    
+E
|-12h13p12--------------------------------------------|-17-13-----------------------------------|
|----------13S10----/15b17r========(15)b17r======(15)-|-------15--------------------------------|
|----------------10-----------------------------------|----------14-----------------------------|
|-----------------------------------------------------|-------------15-12-13b15---(13)---(13)\--|
|-----------------------------------------------------|-----------------------------------------|
|-----------------------------------------------------|-----------------------------------------|

                                       Guitar Solo II
  E5(type 2)  F#5(type 2) A5(A5pe 2)    C#5(type 2)
  Gtrs I, II
   Q           Q          Q  Q            E   E E E E E  E   E
   |           |          |  |            |   | | | | |  |   |
   /           /          /  /            /   / / / / /  /   /

  Gtr V
                                          ~~~~~
   S  S  S  S  S  S  H          +E        H..               +E
|----------------13-17b18------(17)\-||-/17----------------(17)\-|
|-------------15---------------------||--------------------------|
|----------14------------------------||--------------------------|
|----13-15---------------------------||--------------------------|
|-15---------------------------------||--------------------------|
|------------------------------------||--------------------------|
|
| Gtr III
|                                         ~~~~~
|  W                                      H.             Q
|------------------------------------||--------------------------|
|------------------------------------||--------------------------|
|------------------------------------||--/7----------------------|
|------------------------------------||------------------7-------|
|------------------------------------||--------------------------|
|------------------------------------||--------------------------|
|
| Gtr IV
|  W                                      E   Q   Q   E  Q
|------------------------------------||-------6---5-----10-------|
|------------------------------------||--------------------------|
|------------------------------------||--------------------------|
|------------------------------------||--------------------------|
|------------------------------------||---5-----------5----------|
|------------------------------------||--------------------------|

               B5(type 2)
  E   E E E     E E E E     E   E  E E  E E  E E
  |   | | |     | | | |     |   |  | |  | |  | |
  /   / / /     / / / /     /   /  / /  / /  / /

  W                         W
|-----------------------|-------------------------|
|-----------------------|-------------------------|
|-----------------------|-------------------------|
|-----------------------|-------------------------|
|-----------------------|-------------------------|
|-----------------------|-------------------------|
|
|               ~~~~~~~~~~~~~~~~
| H          a  H          +Q      Q    Q    Q
|-----------------------|-------------------------|
|-----------------------|-------------------10----|
|-7b9r======12s14-------|-(14)\----0---/7---------|
|------------x----------|-------------------------|
|-----------------------|-------------------------|
|-----------------------|-------------------------|
|
| Q     Q       E Q   E    +E   E  Q    Q    Q
|-6-----5---------6---5-|--(5)----10----6----5----|
|-----------------------|-------------------------|
|-----------------------|-------------------------|
|-----------------------|-------------------------|
|---------------5-------|-------5-----------------|
|-----------------------|-------------------------|

  F#5                                  A5              B5
  Gtrs I, II
    E E E E   E   E  E E    E    E E E E E E E    E  E  E E  E    E E E
|------------------------|---------------------|------------------------|
|------------------------|---------------------|------------------------|
|------------------------|---------------------|--------5-5--5----5-5-5-|
|---5-5-5-5---5---5--5-5-|--5----5-5-5-8-8-8-8-|--8--8--5-5--5----5-5-5-|
|---5-5-5-5---5---5--5-5-|--5----5-5-5-8-8-8-8-|--8--8--3-3--3----3-3-3-|
|---5-5-5-5---5---5--5-5-|--5----5-5-5-8-8-8-8-|--8--8------------------|
|
| Gtr III
|   ~~~                                ~~~~~~~~~~~~~~
|   H        +Q      Q      H          H         +Q     Q    H
|------------------------|---------------------|------------------------|
|-/22-------(22)\--------|-10b11r======x-------|------------10b11r======|
|-------------------/7---|-------------7-------|-(7)--------------------|
|------------------------|---------------------|--------7---------------|
|------------------------|---------------------|------------------------|
|------------------------|---------------------|------------------------|
|
| Gtr IV
|   E Q   Q       E  Q      Q      Q   E Q   E   +E  E  Q    Q      Q
|-----6---5---------10---|--6------5-----6---5-|-(5)---10----6------5---|
|------------------------|---------------------|------------------------|
|------------------------|---------------------|------------------------|
|------------------------|---------------------|------------------------|
|---5-------------5------|-------------5-------|-----5------------------|
|------------------------|---------------------|------------------------|

  C#5                              B5
  E  E E E E E  E E   E   E E E     E E E E     E   E  E E  E E  E  E
|-------------------|-----------------------|-------------------------|
|-------------------|-----------------------|-------------------------|
|-7--7-7-7-7-7--7-7-|-7---7-7-7-----5-5-5-5-|---5---5--5-5--5-5--5--5-|
|-7--7-7-7-7-7--7-7-|-7---7-7-7-----5-5-5-5-|---5---5--5-5--5-5--5--5-|
|-5--5-5-5-5-5--5-5-|-5---5-5-5-----3-3-3-3-|---3---3--3-3--3-3--3--3-|
|-------------------|-----------------------|-------------------------|
|
| ~~                                ~~
| H.            Q     H          a  H          +Q      Q    Q    Q
|-------------------|-----------------------|-------------------------|
|-x-----------------|-----------------------|-------------------10/---|
|-7-----------------|-7b9r======12s17-------|-(17)\----0---/7---------|
|---------------7---|------------x----------|-------------------------|
|-------------------|-----------------------|-------------------------|
|-------------------|-----------------------|-------------------------|
|
| E  Q   Q   E  Q     Q     Q       E Q   E    +E   E  Q    Q    Q
|----6---5-----10---|-6-----5---------6---5-|--(5)----10----6----5----|
|-------------------|-----------------------|-------------------------|
|-------------------|-----------------------|-------------------------|
|-------------------|-----------------------|-------------------------|
|-5----------5------|---------------5-------|-------5-----------------|
|-------------------|-----------------------|-------------------------|

  F#5                                A5
    E  E E  E  E E  E E     E  E E E  E     E     E     E
|-----------------------|------------------------------------|
|-----------------------|------------------------------------|
|-----------------------|------------------------------------|
|---5--5-5--5--5-5--5-5-|---5--5-5-5--8-----8-----8-----8----|
|---5--5-5--5--5-5--5-5-|---5--5-5-5--8-----8-----8-----8----|
|---5--5-5--5--5-5--5-5-|---5--5-5-5--8-----8-----8-----8----|
|
|                   ~~~~~~~~~~~
|   Q.      Q.      Q      +H         S  S  S  S  S  S  S  S
|-/18------17-----------|------------18p17p15----------17p13-|
|------------------15---|-(15)----------------18p17p15-------|
|-----------------------|------------------------------------|
|-----------------------|------------------------------------|
|-----------------------|------------------------------------|
|-----------------------|------------------------------------|
|
|   E  Q    Q    E  Q       Q    Q    E     Q           E
|------6----5------10---|---6----5----------6-----------5----|
|-----------------------|------------------------------------|
|-----------------------|------------------------------------|
|-----------------------|------------------------------------|
|---5------------5------|-------------5----------------------|
|-----------------------|------------------------------------|

                           B5
   E      E     E     E     E     E     E     E
|--------------------------------------------------||
|--------------------------------------------------||
|---------------5-----5-----5-----5-----5-----5----||
|--8------8-----5-----5-----5-----5-----5-----5----||
|--8------8-----3-----3-----3-----3-----3-----3----||
|--8------8----------------------------------------||
|
|  S   S  S  S  S  S  S  S  S  S  S  S  S  S  S  S
|-----------13S20p18p17----------18p15-------------||
|-15--------------------20p18p17-------15----------||
|-----14----------------------------------15-------||
|--------15----------------------------------17----||
|-----------------------------------------------15-||
|--------------------------------------------------||
|
| +E      E     Q           Q           Q
|-(5)----------10-----------6-----------5----------||
|--------------------------------------------------||
|--------------------------------------------------||
|--------------------------------------------------||
|---------5----------------------------------------||
|--------------------------------------------------||

 Interlude
  C#5                               E5
  Gtrs I, II
   Q    E E   E   E Q       E E E E  Q  E E
|------------------------|------------------|
|------------------------|------------------|
|------------------------|------------------|
|--0----0-0---0---0-0----|--0-0-0-0--3--3-3-|
|--0----0-0---0---0-0----|--0-0-0-0--3--3-3-|
|--0----0-0---0---0-0----|--0-0-0-0--3--3-3-|
|
| Gtr III
|  ~~~~
|  H         +Q     Q       W
|------------------------|------------------|
|------------------------|------------------|
|------------------------|------------------|
|------------------------|------------------|
|-17--------(17)\--------|------------------|
|------------------------|------------------|
|
| Gtr IV
|  H..                 E    H        H
|------------------------|------------------|
|-10---------------------|-10-------13------|
|---------------------10-|------------------|
|------------------------|------------------|
|------------------------|------------------|
|------------------------|------------------|

                        B5
   E E Q   E  E  E  E    Q  E E  E E Q
|---------------------|----------------|
|---------------------|----------------|
|---------------------|--5--5-5--5-5-5-|
|--3-3-3---3--3--3--3-|--5--5-5--5-5-5-|
|--3-3-3---3--3--3--3-|--3--3-3--3-3-3-|
|--3-3-3---3--3--3--3-|----------------|
|
|  W                     W
|---------------------|----------------|
|---------------------|----------------|
|---------------------|----------------|
|---------------------|----------------|
|---------------------|----------------|
|---------------------|----------------|
|
|  H       E  E  E  E    H       H
|---------------------|-15------15-----|
|-13------13----------|----------------|
|---------------------|----------------|
|------------------15-|----------------|
|---------------15----|----------------|
|------------15-------|----------------|

  B5       G#5
  Gtrs I, II
   E E E E  Q  E E    E E Q   E E E E
|------------------|------------------|
|------------------|------------------|
|--5-5-5-5---------|------------------|
|--5-5-5-5--7--7-7-|--7-7-7---7-7-7-7-|
|--3-3-3-3--7--7-7-|--7-7-7---7-7-7-7-|
|-----------7--7-7-|--7-7-7---7-7-7-7-|
|
| Gtr IV
|  H        H         H       H
|-15-------12------|-12------12-------|
|------------------|------------------|
|------------------|------------------|
|------------------|------------------|
|------------------|------------------|
|------------------|------------------|

                   A5
   Q     E  E  E E  Q      E  E   E  E Q   E E
|----------------------|-----------------------|
|----------------------|-----------------------|
|----------------------|-----------------------|
|--7-----7--7--7-7--8--|---8--8---8--8-8---8-8-|
|--7-----7--7--7-7--8--|---8--8---8--8-8---8-8-|
|--7-----7--7--7-7--8--|---8--8---8--8-8---8-8-|
|
|  Q  E  E  E  E    Q      Q      H        Q
|-12---------------13--|--13-----13-------13---|
|-------------17-------|-----------------------|
|--9-------14----------|------------------14---|
|-------14---------15--|-(15)---(15)-----------|
|----12----------------|-----------------------|
|----------------------|-----------------------|

         B5  E5                              B5
    E  E  Q   E  E  E  E    Q    E  E   E  E  Q
|------------------------|----------------------|
|------------------------|----------------------|
|------------10-10-10-10-|-10---10-10--10-10----|
|---8--8-10--10-10-10-10-|-10---10-10--10-10-10-|
|---8--8-10---8--8--8--8-|--8----8--8---8--8-10-|
|---8--8-10--------------|-------------------10-|
|
|   Q     Q   Q     Q       Q.      Q.        Q
|--13----15--13----------|-18------17-----------|
|------------------13----|-------------------15-|
|-(14)-------------------|----------------------|
|--15--------------------|----------------------|
|------------------------|----------------------|
|------------------------|----------------------|

                                  G#5
    E   E  E  E  Q   E  E    E  E Q  E E E E
|-------------------------|------------------|
|-------------------------|------------------|
|-------------------------|------------------|
|--10--10-10-10-10--10-10-|-10-10-7--7-7-7-7-|
|--10--10-10-10-10--10-10-|-10-10-7--7-7-7-7-|
|--10--10-10-10-10--10-10-|-10-10-7--7-7-7-7-|
|
|  +W                        a  W
|-------------------------|-10-15------------|
|-(15)--------------------|------------------|
|-------------------------|------------------|
|-------------------------|------------------|
|-------------------------|------------------|
|-------------------------|------------------|

   Q  E E E E Q      E  E E E   Q   E E
|----------------|-----------------------|
|----------------|-----------------------|
|----------------|-----------------------|
|--7--7-7-7-7-7--|---7--7-7-7---7---7-7--|
|--7--7-7-7-7-7--|---7--7-7-7---7---7-7--|
|--7--7-7-7-7-7--|---7--7-7-7---7---7-7--|
|
|  W                 H          H
|-15-------------|--15---------15--------|
|----------------|-----------------------|
|-12-------------|-(12)-------(12)-------|
|----------------|-----------------------|
|----------------|-----------------------|
|----------------|-----------------------|

                      A5
    E  E Q  E E E E    Q  E E E E Q
|-------------------|----------------|
|-------------------|----------------|
|-------------------|----------------|
|---7--7-7--7-7-7-7-|--8--8-8-8-8-8--|
|---7--7-7--7-7-7-7-|--8--8-8-8-8-8--|
|---7--7-7--7-7-7-7-|--8--8-8-8-8-8--|
|
|   W                  W
|-(15)--------------|-15-------------|
|-------------------|-13-------------|
|--17---------------|-12-------------|
|-------------------|----------------|
|-------------------|----------------|
|-------------------|----------------|

                                       B5
   E E  E E  Q   E E    E E  Q   E +E   Q
|--------------------|---------------------||
|--------------------|---------------------||
|--------------------|---------------------||
|--8-8--8-8--8---8-8-|--8-8--8---8-(8)h10\-||
|--8-8--8-8--8---8-8-|--8-8--8---8-(8)-10\-||
|--8-8--8-8--8---8-8-|--8-8--8---8-(8)h10\-||
|
|  Q    Q    Q   Q      Q    Q   Q      Q
|-15---13-------18---|-17-------17-----18--||
|-----------15-------|------15-------------||
|--------------------|---------------------||
|--------------------|---------------------||
|--------------------|---------------------||
|--------------------|---------------------||

 Pre Chorus
  C#5       C#5 N.C.B5                 N.C.E5        N.C.
  Gtr I
         PM     PM|                    PM|           PM|
    Q    E   E  E E  E   E      E   E  E E   E    E  E E
|---------------------------|----------------------------|
|---------------------------|----------------------------|
|---------------------------|----------------------------|
|-----------(7)-----(5)-(5)-|--(5)-(5)-----(10)-(10)-----|
|---0-------(5)-----(3)-(3)-|--(3)-(3)------(8)--(8)-----|
|---0----x------x-x---------|----------x-x-----------x-x-|
|
| Gtr II
|   PM----------------------------------------------------
|   E  E H.                     W
|---------------------------|----------------------------|
|---------------------------|----------------------------|
|---------------------------|----------------------------|
|---------------------------|----------------------------|
|---0--0--------------------|----------------------------|
|---0--0--------------------|----------------------------|
|
| Gtr IV
|   W                          +W
|-(18)----------------------|-(18)-----------------------|
|--11-----------------------|-(11)-----------------------|
|---------------------------|----------------------------|
|---------------------------|----------------------------|
|---------------------------|----------------------------|
|---------------------------|----------------------------|

  E5              N.C.C#m/E         Cm/Eb
                  PM|
    Q     E    E  E E  Q      H      H
|--------------------------|---------------|
|--------------------------|---------------|
|--------------------------|---------------|
|-(10)--(10)-(10)-----(3)--|-(3)----(2)----|
|--(8)---(8)--(8)-----(5)--|-(5)----(4)----|
|-----------------x-x-(3)--|-(3)----(2)----|
|
|----------------------------|
|   W                         W
|--------------------------|---------------|
|--------------------------|---------------|
|--------------------------|---------------|
|--------------------------|---------------|
|--------------------------|---------------|
|--------------------------|---------------|
|
|   W                         W
|--------------------------|---------------|
|--------------------------|---------------|
|--------------------------|---------------|
|--------------------------|---------------|
|--------------------------|---------------|
|--------------------------|---------------|

  C#5       C#5     B5  N.C.   B5      N.C.E5        N.C.
  Gtr I
          PM    PM|                    PM|           PM|
  Q       E  E  E E  E   E      E   E  E E   E    E  E E
|----------------------------|---------------------------|
|----------------------------|---------------------------|
|----------------------------|---------------------------|
|-----------(7)-----(5)-(5)--|-(5)-(5)-----(10)-(10)-----|
|-0---------(5)-----(3)-(3)--|-(3)-(3)------(8)--(8)-----|
|-0-------x-----x-x----------|---------x-x-----------x-x-|
|
| Gtr II
| PM------------------------------------------------------
| S S S S E  E  H               W
|----------------------------|---------------------------|
|----------------------------|---------------------------|
|----------------------------|---------------------------|
|----------------------------|---------------------------|
|-0-0-0-0-0--0---------------|---------------------------|
|-0-0-0-0-0--0---------------|---------------------------|

  E5                 N.C#m/E     Cm/Eb
                   PM|
    Q      E    E  E E Q    H    H
|-------------------------|-----------||
|-------------------------|-----------||
|-------------------------|-----------||
|-(10)---(10)-(10)-----3--|-3----2----||
|--(8)----(8)--(8)-----5--|-5----4----||
|------------------x-x-3--|-3----2----||
|
|--------------------|
|   E  E   E    E  E E Q    H    H
|-------------------------|-----------||
|-------------------------|-----------||
|-------------------------|-----------||
|----------------------3--|-3----2----||
|---0--0---0----0--0-0-5--|-5----4----||
|---0--0---0----0--0-0-3--|-3----2----||

 Chorus
  E5
  Gtrs I, II
   Q   E  E  Q   Q       Q   E  Q    E  E  E
|---------------------|----------------------|
|---------------------|----------------------|
|---------------------|----------------------|
|--3---3--3--3---3----|--3---3--3----3--3--3-|
|--3---3--3--3---3----|--3---3--3----3--3--3-|
|--3---3--3--3---3----|--3---3--3----3--3--3-|
|
| Gtr III
|  Q   E  E  Q   E  E    Q   E  E  Q    E  E
|---------------------|----------------------|
|---------------------|----------------------|
|-10--10-10-12--12-12-|-14--14-14-12---12-12-|
|---------------------|----------------------|
|--8---8--8-10--10-10-|-12--12-12-10---10-10-|
|---------------------|----------------------|

  B5/E                  E5
   Q   E  E  Q   Q       Q   E  Q    E  E  E
|---------------------|-----------------------|
|---------------------|-----------------------|
|---------------------|-----------------------|
|--5---5--5--5---5----|--3---3--3----3--3--3--|
|--3---3--3--3---3----|--3---3--3----3--3--3--|
|--3---3--3--3---3----|--3---3--3----3--3--3--|
|
|  Q   E  E  Q   E  E    Q   E  E  Q    E  E
|---------------------|-----------------------|
|---------------------|-----------------------|
|-10--10-10-14--14-14-|-12--12-12-14---14-14--|
|---------------------|-----------------------|
|--8---8--8-12--12-12-|-10--10-10-12---12-12--|
|---------------------|-----------------------|

  C#5
  Q  E E E E E E   Q  E E  E E  E  E
|----------------|-------------------|
|----------------|-------------------|
|----------------|-------------------|
|-0--0-0-0-0-0-0-|-0--0-0--0-0--0--0-|
|-0--0-0-0-0-0-0-|-0--0-0--0-0--0--0-|
|-0--0-0-0-0-0-0-|-0--0-0--0-0--0--0-|
|
| Q  E E Q   E E   Q  E E  Q    E  E
|----------------|-------------------|
|----------------|-------------------|
|-7--7-7-9---9-9-|-7--7-7-10---10-10-|
|----------------|-------------------|
|-5--5-5-7---7-7-|-5--5-5--8----8--8-|
|----------------|-------------------|

   Q   E  E  E E  E  E    Q   E  E E E E E
|----------------------|--------------------|
|----------------------|--------------------|
|----------------------|--------------------|
|--0---0--0--0-0--0--0-|--0---0--0-0-0-0-0--|
|--0---0--0--0-0--0--0-|--0---0--0-0-0-0-0--|
|--0---0--0--0-0--0--0-|--0---0--0-0-0-0-0--|
|
|  Q   E  E  Q    E  E    Q   E  E E E E E
|----------------------|--------------------|
|----------------------|--------------------|
|-14--14-14-12---12-12-|-10--10-10-9-9-9-9--|
|----------------------|--------------------|
|-12--12-12-10---10-10-|--8---8--8-7-7-7-7--|
|----------------------|--------------------|

  E5
  Gtrs I, II
   Q   E  E  E E  E  E    Q   E  E  E E  E  E
|----------------------|----------------------|
|----------------------|----------------------|
|----------------------|----------------------|
|--3---3--3--3-3--3--3-|--3---3--3--3-3--3--3-|
|--3---3--3--3-3--3--3-|--3---3--3--3-3--3--3-|
|--3---3--3--3-3--3--3-|--3---3--3--3-3--3--3-|
|
| Gtr III
|  Q   E  E  Q    E  E    Q   E  E  Q    E  E
|----------------------|----------------------|
|----------------------|----------------------|
|-10--10-10-12---12-12-|-14--14-14-12---12-12-|
|----------------------|----------------------|
|--8---8--8-10---10-10-|-12--12-12-10---10-10-|
|----------------------|----------------------|

  B5/E                   E5
   Q   E  E  E E  E  E    Q   E  E  E E  E  E
|----------------------|-----------------------|
|----------------------|-----------------------|
|----------------------|-----------------------|
|--5---5--5--5-5--5--5-|--3---3--3--3-3--3--3--|
|--3---3--3--3-3--3--3-|--3---3--3--3-3--3--3--|
|--3---3--3--3-3--3--3-|--3---3--3--3-3--3--3--|
|
|  Q   E  E  Q    E  E    Q   E  E  Q    E  E
|----------------------|-----------------------|
|----------------------|-----------------------|
|-10--10-10-14---14-14-|-12--12-12-14---14-14--|
|----------------------|-----------------------|
|--8---8--8-12---12-12-|-10--10-10-12---12-12--|
|----------------------|-----------------------|

  C#5
  Q  E E E E E E   Q  E E  E E  E  E
|----------------|-------------------|
|----------------|-------------------|
|----------------|-------------------|
|-0--0-0-0-0-0-0-|-0--0-0--0-0--0--0-|
|-0--0-0-0-0-0-0-|-0--0-0--0-0--0--0-|
|-0--0-0-0-0-0-0-|-0--0-0--0-0--0--0-|
|
| Q  E E Q   E E   Q  E E  Q    E  E
|----------------|-------------------|
|----------------|-------------------|
|-7--7-7-9---9-9-|-7--7-7-10---10-10-|
|----------------|-------------------|
|-5--5-5-7---7-7-|-5--5-5--8----8--8-|
|----------------|-------------------|

   Q   E  E  E E  E  E    Q   E  E E E E E
|----------------------|--------------------|
|----------------------|--------------------|
|----------------------|--------------------|
|--0---0--0--0-0--0--0-|--0---0--0-0-0-0-0--|
|--0---0--0--0-0--0--0-|--0---0--0-0-0-0-0--|
|--0---0--0--0-0--0--0-|--0---0--0-0-0-0-0--|
|
|  Q   E  E  Q    E  E    Q   E  E E E E E
|----------------------|--------------------|
|----------------------|--------------------|
|-14--14-14-12---12-12-|-10--10-10-9-9-9-9--|
|----------------------|--------------------|
|-12--12-12-10---10-10-|--8---8--8-7-7-7-7--|
|----------------------|--------------------|

  N.C.
  Gtrs I, II
  PM------------|     ~
  S S S S S S S S E E Q
|-----------------------||
|-----------------------||
|-----------------------||
|-----------------------||
|-----------------------||
|-0-0-0-0-0-0-0-0-7-8p7-||

 Pre Verse
  C#5 N.C.      D5  C5    C5A5    C5  C#5 N.C.
  Gtr I
      PM------|       PM|     PM|         PM-----------
  Q   E E E E E E   E E E E E E E E   Q   E E E E E E
|-----------------|-----------------|-----------------|
|-----------------|-----------------|-----------------|
|-7\--------------|-----------------|-----------------|
|-7\------------8S|=6-----6S3-----6-|-7\--------------|
|-5\------------6S|=4-----4S1-----4-|-5\--------------|
|-----0-0-0-0-0---|---0-0-----0-0---|-----0-0-0-0-0-0-|
|
| Gtr II
|     PM------|       PM|     PM|         PM-----------
| Q   E E E E E E   E E E E E E E E   Q   E E E E E E
|-----------------|-----------------|-----------------|
|-----------------|-----------------|-----------------|
|-7\--------------|-----------------|-----------------|
|-7\------------8S|=6-----6S3-----6-|-7\--------------|
|-5\------------6S|=4-----4S1-----4-|-5\--------------|
|-----0-0-0-0-0---|---0-0-----0-0---|-----0-0-0-0-0-0-|

 -------|         PM----|
  S S S S S S S S S S S S S  S S S
|------------------------------------|
|------------------------------------|
|------------------------------------|
|------------------------------------|
|------------------------------------|
|-0-0-0-0-7h8p7h8-0-0-0-0-8h10-8p7---|
|
|-------|         PM----|
| S S S S S S S S S S S S S  S S S
|------------------------------------|
|------------------------------------|
|------------------------------------|
|------------------------------------|
|------------------------------------|
|-0-0-0-0-3h5h7p5-0-0-0-0-5h=7-8p3---|

  C#5 N.C.      D5  C5    C5A5    C5
  Gtrs I, II
      PM------|       PM|     PM|
  Q   E E E E E E   E E E E E E E E
|-----------------|-----------------|
|-----------------|-----------------|
|-7\--------------|-----------------|
|-7\------------8S|=6-----6S3-----6-|
|-5\------------6S|=4-----4S1-----4-|
|-----0-0-0-0-0---|---0-0-----0-0---|

  C#5 N.C.
                   7/4
      PM--------------------------|     ~~
  Q   E E E E E E   S S S S S S S S E E Q.   +E  H
|-----------------|----------------------------------*|
|-----------------|----------------------------------*|
|-----------------|----------------------------------*|
|-7\--------------|----------------------------------*|
|-5\--------------|----------------------------------*|
|-----0-0-0-0-0-0-|-0-0-0-0-0-0-0-0-7-8p7----(7)sx---*|

devamelodica | May 24th, 2012 | No Comments
      Pin It








  • BACA JUGA

  • Recent Comments



  • theme by Chivaz [dot] net | Komputer | Gadget | Informasi | Game Gratis | Video