DEVAMELODICA [DOT] COM

tongkrongannya remaja gaul

Random Post
Chord Kunci Gitar Lirik Noah Hidup Untukmu, Mati Tanpamu

Chord Kunci Gitar Lirik Noah Hidup Untukmu, Mati Tanpamu

Chord Kunci Gitar Lirik Noah Hidup Untukmu, Mati Tanpamu – berikut adalah chord sekaligus kunci gitar dan lirik dari single andalan terbaru Noah yang berjudul […]

Selengkapnya »

Tablature dan Melodi Gitar Brompton Cocktail Avenged Sevenfold

Tablature dan Melodi Gitar Brompton Cocktail Avenged Sevenfold

D5
 0 0 0 x x x

F5
3 3 3 x x x

G5
5 5 5 x x x

Bb5
8 8 8 x x x

A5
7 7 7 x x x

E5
2 2 2 x x x

Gtr I (D A D G B E) - 'Rhythm Guitar I'
Gtr II (D A D G B E) - 'Rhythm Guitar II'
Gtr III (D A D G B E) - 'Lead Guitar I'
Gtr IV (D A D G B E) - 'Lead Guitar II'
Gtr V (D A D G B E) - 'Lead Guitar III'
Gtr VI (D A D G B E) - 'String Ensemble'

 Harmonic Intro
 4/4
  Gtr III
        \2.5___________________\1/  /
        W              +H     +E   +E  +Q
|--------------------|----------------------|
|------<3>-----------|-(3)----(3)--(3)-(3)--|
|------<3>-----------|-(3)----(3)--(3)-(3)--|
|--------------------|----------------------|
|--------------------|----------------------|
|--------------------|----------------------|
|
| Gtr IV
|  \4___/
|  a   +W              +W
|-<5>--(5)-----------|-(5)------------------|
|-<5>--(5)-----------|-(5)------------------|
|--------------------|----------------------|
|--------------------|----------------------|
|--------------------|----------------------|
|--------------------|----------------------|
|
| Gtr V
|       W               W
|--------------------|----------------------|
|--------------------|----------------------|
|--------------------|----------------------|
|--------------------|----------------------|
|--------------------|----------------------|
|--------------------|----------------------|

       \2.5___________________\1/  /
       W              +H     +E   +E  +Q
|-------------------|----------------------|
|-----<3>-----------|-(3)----(3)--(3)-(3)--|
|-----<3>-----------|-(3)----(3)--(3)-(3)--|
|-------------------|----------------------|
|-------------------|----------------------|
|-------------------|----------------------|
|
|  \2
|  a  +W              +W
|-<5>-(5)-----------|-(5)------------------|
|-<5>-(5)-----------|-(5)------------------|
|-------------------|----------------------|
|-------------------|----------------------|
|-------------------|----------------------|
|-------------------|----------------------|
|
|      <
|      ~~~~~~~~~~~~~~~~~~~
|      W              +W
|-------------------|----------------------|
|-------------------|----------------------|
|-------------------|----------------------|
|-----[5]-----------|-(5)------------------|
|-------------------|----------------------|
|-------------------|----------------------|

   \2.5___________________________________________
   W
|------------------------------------------------|
|-<3>--------------------------------------------|
|-<3>--------------------------------------------|
|------------------------------------------------|
|------------------------------------------------|
|------------------------------------------------|
|
|                     \0.5/  \0.5/  \0.5/  \0.5/
|  E      E   E   E  +E     +E     +E     +E
|------------<5>-(5)-(5)----(5)----(5)----(5)----|
|--------<5>-(5)-<5>-(5)----(5)----(5)----(5)----|
|-<5>----(5)-(5)-(5)-(5)----(5)----(5)----(5)----|
|------------------------------------------------|
|------------------------------------------------|
|------------------------------------------------|
|
|  ~~~~~~~~~~~~~~~~~~~~~~~~~~~~~~~~~~~~~~~~~~~~~~~
| +W
|------------------------------------------------|
|------------------------------------------------|
|------------------------------------------------|
|-(5)--------------------------------------------|
|------------------------------------------------|
|------------------------------------------------|

          \1/  /          \2.5____________________\1/  /
  +H     +E   +E  +Q      W              +H      +E   +E  +Q
|----------------------|---------------|-----------------------||
|-(3)----(3)--(3)-(3)--|-<3>-----------|-(3)-----(3)--(3)-(3)--||
|-(3)----(3)--(3)-(3)--|-<3>-----------|-(3)-----(3)--(3)-(3)--||
|----------------------|---------------|-----------------------||
|----------------------|---------------|-----------------------||
|----------------------|---------------|-----------------------||
|
|                         \2/             /4\
|  ~~~
| +W                      W              +W
|-(5)------------------|---------------|-----------------------||
|-(5)------------------|---------------|-----------------------||
|-(5)------------------|-<5>-----------|-(5)-------------------||
|----------------------|-<5>-----------|-(5)-------------------||
|----------------------|---------------|-----------------------||
|----------------------|---------------|-----------------------||
|
|~~~~~~~~~~~~~~~~~~~~~~~~~~~~~~~~~~~~~~~~~~~~~
| +W                     +W              +w
|----------------------|---------------|-----------------------||
|----------------------|---------------|-----------------------||
|----------------------|---------------|-----------------------||
|-(5)------------------|-(5)-----------|-(5)-------------------||
|----------------------|---------------|-----------------------||
|----------------------|---------------|-----------------------||

   Intro
    Q=155
    D5  D5                  F5  Dm  Bb5
    Gtrs I, II
      PM  PM ~~~~~~~~~~~~~PM  PM  PM  PM
    E E E E  Q.   E   +E  E E E E E E E
||------------------|-------------------|
||o-----------------|-------------------|
||------------------|-------------------|
||------------------|-----------3---3---|
||o-0---0-----------|-------3---5---1---|
||--0-0-0-0-/8----7-|-(7)-0-3-0---0---0-|

  A5                      F5  A5  F5
    PM  PM ~~~~~~~~~~~~~PM  PM  PM~
  E E E E  Q.   E   +E  E E E E E Q
|-----------------|--------------------||
|-----------------|-------------------o||
|-----------------|--------------------||
|-2---------------|-----------2--------||
|-0---0-----------|-------3---0---3---o||
|---0-0-0-/8----7-|-(7)-0-3-0---0-3----||

   Pre-Verse
    PM------------------|     ~~
    Q.   Q.   Q    Q.   Q  E  Q
||---------------|----------------||
||o--------------|---------------o||
||---------------|----------------||
||---------------|----------------||
||o--------------|---------------o||
||--0----0----0--|-0----0--3s12---||

   Verse
    Gtrs I, II
    PM--------------------|      ~~   PM--------------------|      ~~
    Q.   Q.     Q    Q.   Q   E  Q    Q.   Q.     Q    Q.   Q   E  Q
||-----------------|----------------|----------------|------------------||
||o----------------|----------------|----------------|-----------------o||
||-----------------|----------------|----------------|------------------||
||-----------------|----------------|----------------|------------------||
||o----------------|----------------|----------------|-----------------o||
||--0----0------0--|-0----0---3s12--|-0----0------0--|-0----0---3s12----||
|
|   Gtr VI
|   q.   E  E E Q    Q.   E E E  q    Q.   E  E E q    Q.   E E E  q
||--3----3--3-1-1--|------0-0-1--1--|------1--1-0-0--|------------------||
||o-5----5--5-3-3--|------2-2-3--3--|------3--3-2-2--|------3-3-2--2---o||
||-----------------|----------------|----------------|------3-3-2--2----||
||--2----2--2-0-0--|----------0--0--|------0--0------|------------------||
||o----------------|------4-4-------|-----------4-4--|------1-1-0--0---o||
||-----------------|----------------|----------------|------------------||

 Pre-Chorus
  A5      A5    Bb5   Em/G  Em/G    A/C#
  Gtr I
    PM--|   PM|   PM    PM|   PM--|   PM
  E S S E E E E E E   E E E E S S E E E
|-------------------|-------------------|
|-------------------|-------------------|
|-2-------2-----3---|---------------2---|
|-2-------2-----3---|-5-----5-------2---|
|-0-------0-----1---|-7-----7-------4---|
|---0-0-0---0-0---0-|-5-0-0-5-0-0-0---0-|
|
| Gtr II
|   PM--|   PM|   PM    PM|   PM--|   PM
| E S S E E E E E E   E E E E S S E E E
|-------------------|-------------------|
|-------------------|-------------------|
|-2-------2-----3---|---------------2---|
|-2-------2-----3---|-5-----5-------2---|
|-4-------4-----1---|-7-----7-------0---|
|---0-0-0---0-0---0-|-5-0-0-5-0-0-0---0-|
|
| Gtr VI
| W                   W
|-1-----------------|-------------------|
|-------------------|-8-----------------|
|-2-----------------|-------------------|
|-------------------|-5-----------------|
|-0-----------------|-------------------|
|-------------------|-5-----------------|

  F5    F5    F5    C/E     C/E     C/E
    PM|   PM|   PM    PM|      PM-|   PM
  E E E E E E E E   E E  E  E  E  E E E
|-----------------|-----------------------|
|-----------------|-----------------------|
|-----------------|-----------------------|
|-3-----3-----3---|-2-------2-------2-----|
|-3-----3-----3---|-3-------3-------3-----|
|-3-0-0-3-0-0-3-0-|-2-0--0--2--0--0-2-0---|
|
|   PM|   PM|   PM    PM|      PM-|   PM
| E E E E E E E E   E E  E  E  E  E E E
|-----------------|-----------------------|
|-----------------|-----------------------|
|-----------------|-----------------------|
|-3-----3-----3---|-2-------2-------2-----|
|-3-----3-----3---|-3-------3-------3-----|
|-3-0-0-3-0-0-3-0-|-2-0--0--2--0--0-2-0---|
|
| W                 Q    Q     H
|-----------------|-----------------------|
|-6---------------|-5---(5)---(5)---------|
|-----------------|-----------------------|
|-3---------------|-2---(2)---(2)---------|
|-----------------|-----------------------|
|-3---------------|-2----2-----0----------|

                A5        A/C#               G5        Em/G
  Gtr I
  PM----------|   PM----|      PM----------|   PM------|
  |-3-|                        |-3---------------------|
  S S S S S S S E S S S S Q    S S S S S S S E S S S S Q
|----------------------------|----------------------------|
|----------------------------|----------------------------|
|---------------2---------2--|----------------------------|
|---------------2---------2--|---------------5---------5--|
|---------------0---------0--|---------------5---------5--|
|-0-0-0-0-0-0-0---0-0-0-0----|-0-0-0-0-0-0-0-5-0-0-0-0-5--|
|
| Gtr II
| PM----------|   PM----|      PM----------|   PM------|
| |-3-|                        |-3---------------------|
| S S S S S S S E S S S S Q    S S S S S S S E S S S S Q
|----------------------------|----------------------------|
|----------------------------|----------------------------|
|---------------2---------2--|----------------------------|
|---------------2---------2--|---------------5---------5--|
|---------------0---------4--|---------------5---------7--|
|-0-0-0-0-0-0-0---0-0-0-0----|-0-0-0-0-0-0-0-5-0-0-0-0-5--|

              G5F5                                 F5C/E
  PM--------|                          PM--------|
  S S S S S S E E Q.                   S S S S S S E E Q.
|------------------------------------|------------------------------------||
|------------------------------------|------------------------------------||
|------------------------------------|------------------------------------||
|-------------5p3-3------------------|-------------3p2-2------------------||
|-------------5-3-3------------------|-------------3-3-3------------------||
|-0-0-0-0-0-0-5p3-3------------------|-0-0-0-0-0-0-3p2-2------------------||
|
|                     \0.25/  \0.25/                       \0.25/  \0.25/
| PM--------|                          PM--------|
| S S S S S S E E E  +E      +E        S S S S S S E E E  +E      +E
|------------------------------------|------------------------------------||
|------------------------------------|------------------------------------||
|------------------------------------|------------------------------------||
|-------------5p3-3--(3)-----(3)-----|-------------3p2-2--(2)-----(2)-----||
|-------------5-3-3--(3)-----(3)-----|-------------3-3-3--(3)-----(3)-----||
|-0-0-0-0-0-0-5p3-3--(3)-----(3)-----|-0-0-0-0-0-0-3p2-2--(2)-----(2)-----||

 Chorus
  D5             D5  E5             E5                 F5  G5             G5
  Gtrs I, II
     PM--------|        PM--------|        PM--------|        PM--------|
  Q  S S E E E E E   Q  S S E E E E E   Q  S S E E E E E   Q  S S E E E E E
|------------------|------------------|------------------|-------------------|
|------------------|------------------|------------------|-------------------|
|------------------|------------------|------------------|-------------------|
|-0--------------0h|=2--------------2h|=3--------------3h|=5--------------5p=|
|-0--------------0-|-2--------------2-|-3--------------3-|-5--------------5--|
|-0--0-0-0-0-0-0-0h|=2--0-0-0-0-0-0-2h|=3--0-0-0-0-0-0-3h|=5--0-0-0-0-0-0-5p=|
|
| Gtr VI
| Q  H         E E   Q  H         E E   Q  H         E E   Q  H         E E
|------------------|------------------|------------------|-3--------------3--|
|-3--------------3-|-5--------------5-|-8--------------8-|-------------------|
|------------------|------------------|------------------|-3--------------3--|
|-3--------------3-|-5--------------5-|-5--------------5-|-------------------|
|------------------|------------------|------------------|-------------------|
|------------------|------------------|------------------|-------------------|

  F5             F5  E5             E5  G5             G5  A5   A5
     PM--------|        PM--------|        PM--------|               ~~~~~
  Q  S S E E E E E   Q  S S E E E E E   Q  S S E E E E E   Q  E E E  Q  E
|------------------|------------------|------------------|-----------------|
|------------------|------------------|------------------|-----------------|
|------------------|------------------|------------------|-----------------|
|-3--------------3p|=2--------------2h|=5--------------5h|=7----7----------|
|-3--------------3-|-2--------------2-|-5--------------5-|-7----7---/8--7--|
|-3--0-0-0-0-0-0-3p|=2--0-0-0-0-0-0-2h|=5--0-0-0-0-0-0-5h|=7--0-7-0--------|
|
|                                                          ~
| Q  H         E E   Q  H         E E   Q  H         E E   W
|------------------|------------------|-3--------------3-|-5---------------|
|-8--------------8-|-5--------------5-|------------------|-----------------|
|------------------|------------------|-3--------------3-|-5---------------|
|-5--------------5-|-5--------------5-|------------------|-----------------|
|------------------|------------------|------------------|-----------------|
|------------------|------------------|------------------|-----------------|

  D5                Bb5
  Gtrs I, II
  Q.    Q   E E E    Q   Q   E E  Q
|-----------------|------------------|
|-----------------|------------------|
|-----------------|--3---3---3-3--3--|
|-0-----0---0-0-0-|--3---3---3-3--3--|
|-0-----0---0-0-0-|--1---1---1-1--1--|
|-0-----0---0-0-0-|------------------|
|
| Gtr V
| Q   Q   E Q   E    Q   Q   Q    Q
|-----------------|------------------|
|-----------------|------------------|
|-7---7---7-7---7s|=10--14--12---10--|
|-x---x---7-x---x-|------x---x----x--|
|-5---5---5-5---5s|==8--12--10----8--|
|-----------------|------------------|

  Bb5                     G5
  Q    Q     E  E  Q       Q.     Q     E  E E
|-----------------------|----------------------|
|-----------------------|----------------------|
|-3----3-----3--3--3----|----------------------|
|-3----3-----3--3--3----|--5------5-----5--5-5-|
|-1----1-----1--1--1----|--5------5-----5--5-5-|
|-----------------------|--5------5-----5--5-5-|
|
| E  Q    E  E  E  E  E    Q    Q    E  Q.
|-----------------------|----------------------|
|-----------------------|----------------------|
|-7s10---10-10-10-10-10-|-12---12---12-12------|
|-x-------x--x--x--x--x-|--x----x----x--x------|
|-5s=8----8--8--8--8--8-|-10---10---10-10------|
|-----------------------|----------------------|

  D5                Bb5                Bb5                   G5
  Q.    Q   E E E    Q   Q   E E  Q     Q   Q   E  E  Q      Q.     Q  Q.
|-----------------|------------------|---------------------|----------------||
|-----------------|------------------|---------------------|----------------||
|-----------------|--3---3---3-3--3--|--3---3---3--3--3----|----------------||
|-0-----0---0-0-0-|--3---3---3-3--3--|--3---3---3--3--3----|-5------5--5----||
|-0-----0---0-0-0-|--1---1---1-1--1--|--1---1---1--1--1----|-5------5--5----||
|-0-----0---0-0-0-|------------------|---------------------|-5------5--5----||
|
| Q   Q   E Q   E    Q   Q   Q    Q     Q   Q   E  E  E  E   Q   H.
|-----------------|------------------|---------------------|----------------||
|-----------------|------------------|---------------------|----------------||
|-7---7---7-7---7s|=10--14--12---10--|-10--10--10-10-10-10-|-7--------------||
|-x---x---x-x---x-|------x---x----x--|--x---x---x--x--x--x-|-x--------------||
|-5---5---5-5---5s|==8--12--10----8--|--8---8---8--8--8--8-|-5--------------||
|-----------------|------------------|---------------------|----------------||

   Verse
    Gtrs I, II
    PM--------------------|      ~~   PM--------------------|      ~~
    Q.   Q.     Q    Q.   Q   E  Q    Q.   Q.     Q    Q.   Q   E  Q
||-----------------|----------------|----------------|------------------||
||o----------------|----------------|----------------|-----------------o||
||-----------------|----------------|----------------|------------------||
||-----------------|----------------|----------------|------------------||
||o----------------|----------------|----------------|-----------------o||
||--0----0------0--|-0----0---3s12--|-0----0------0--|-0----0---3s12----||
|
|   Gtr VI
|   q.   E  E E Q    Q.   E E E  q    Q.   E  E E q    Q.   E E E  q
||--3----3--3-1-1--|------0-0-1--1--|------1--1-0-0--|------------------||
||o-5----5--5-3-3--|------2-2-3--3--|------3--3-2-2--|------3-3-2--2---o||
||-----------------|----------------|----------------|------3-3-2--2----||
||--2----2--2-0-0--|----------0--0--|------0--0------|------------------||
||o----------------|------4-4-------|-----------4-4--|------1-1-0--0---o||
||-----------------|----------------|----------------|------------------||

 Pre-Chorus
  A5      A5    Bb5   Em/G  Em/G    A/C#
  Gtr I
    PM--|   PM|   PM    PM|   PM--|   PM
  E S S E E E E E E   E E E E S S E E E
|-------------------|-------------------|
|-------------------|-------------------|
|-2-------2-----3---|---------------2---|
|-2-------2-----3---|-5-----5-------2---|
|-0-------0-----1---|-7-----7-------4---|
|---0-0-0---0-0---0-|-5-0-0-5-0-0-0---0-|
|
| Gtr II
|   PM--|   PM|   PM    PM|   PM--|   PM
| E S S E E E E E E   E E E E S S E E E
|-------------------|-------------------|
|-------------------|-------------------|
|-2-------2-----3---|---------------2---|
|-2-------2-----3---|-5-----5-------2---|
|-4-------4-----1---|-7-----7-------0---|
|---0-0-0---0-0---0-|-5-0-0-5-0-0-0---0-|
|
| Gtr VI
| W                   W
|-1-----------------|-------------------|
|-------------------|-8-----------------|
|-2-----------------|-------------------|
|-------------------|-5-----------------|
|-0-----------------|-------------------|
|-------------------|-5-----------------|

  F5    F5    F5    C/E     C/E     C/E
    PM|   PM|   PM    PM|      PM-|   PM
  E E E E E E E E   E E  E  E  E  E E E
|-----------------|-----------------------|
|-----------------|-----------------------|
|-----------------|-----------------------|
|-3-----3-----3---|-2-------2-------2-----|
|-3-----3-----3---|-3-------3-------3-----|
|-3-0-0-3-0-0-3-0-|-2-0--0--2--0--0-2-0---|
|
|   PM|   PM|   PM    PM|      PM-|   PM
| E E E E E E E E   E E  E  E  E  E E E
|-----------------|-----------------------|
|-----------------|-----------------------|
|-----------------|-----------------------|
|-3-----3-----3---|-2-------2-------2-----|
|-3-----3-----3---|-3-------3-------3-----|
|-3-0-0-3-0-0-3-0-|-2-0--0--2--0--0-2-0---|
|
| W                 Q    Q     H
|-----------------|-----------------------|
|-6---------------|-5---(5)---(5)---------|
|-----------------|-----------------------|
|-3---------------|-2---(2)---(2)---------|
|-----------------|-----------------------|
|-3---------------|-2----2-----0----------|

                A5        A/C#               G5        Em/G
  Gtr I
  PM----------|   PM----|      PM----------|   PM------|
  |-3-|                        |-3---------------------|
  S S S S S S S E S S S S Q    S S S S S S S E S S S S Q
|----------------------------|----------------------------|
|----------------------------|----------------------------|
|---------------2---------2--|----------------------------|
|---------------2---------2--|---------------5---------5--|
|---------------0---------0--|---------------5---------5--|
|-0-0-0-0-0-0-0---0-0-0-0----|-0-0-0-0-0-0-0-5-0-0-0-0-5--|
|
| Gtr II
| PM----------|   PM----|      PM----------|   PM------|
| |-3-|                        |-3---------------------|
| S S S S S S S E S S S S Q    S S S S S S S E S S S S Q
|----------------------------|----------------------------|
|----------------------------|----------------------------|
|---------------2---------2--|----------------------------|
|---------------2---------2--|---------------5---------5--|
|---------------0---------4--|---------------5---------7--|
|-0-0-0-0-0-0-0---0-0-0-0----|-0-0-0-0-0-0-0-5-0-0-0-0-5--|

              G5F5                                 F5C/E
  PM--------|                          PM--------|
  S S S S S S E E Q.                   S S S S S S E E Q.
|------------------------------------|------------------------------------||
|------------------------------------|------------------------------------||
|------------------------------------|------------------------------------||
|-------------5p3-3------------------|-------------3p2-2------------------||
|-------------5-3-3------------------|-------------3-3-3------------------||
|-0-0-0-0-0-0-5p3-3------------------|-0-0-0-0-0-0-3p2-2------------------||
|
|                     \0.25/  \0.25/                       \0.25/  \0.25/
| PM--------|                          PM--------|
| S S S S S S E E E  +E      +E        S S S S S S E E E  +E      +E
|------------------------------------|------------------------------------||
|------------------------------------|------------------------------------||
|------------------------------------|------------------------------------||
|-------------5p3-3--(3)-----(3)-----|-------------3p2-2--(2)-----(2)-----||
|-------------5-3-3--(3)-----(3)-----|-------------3-3-3--(3)-----(3)-----||
|-0-0-0-0-0-0-5p3-3--(3)-----(3)-----|-0-0-0-0-0-0-3p2-2--(2)-----(2)-----||

 Chorus
  D5             D5  E5             E5  F5             F5  G5           G5
  Gtrs I, II
     PM--------|        PM--------|        PM--------|        PM--------|
  Q  S S E E E E E   Q  S S E E E E E   Q  S S E E E E E   Q  S S E E E E E
|------------------|------------------|------------------|-------------------|
|------------------|------------------|------------------|-------------------|
|------------------|------------------|------------------|-------------------|
|-0--------------0h|=2--------------2h|=3--------------3h|=5--------------5p=|
|-0--------------0-|-2--------------2-|-3--------------3-|-5--------------5--|
|-0--0-0-0-0-0-0-0h|=2--0-0-0-0-0-0-2h|=3--0-0-0-0-0-0-3h|=5--0-0-0-0-0-0-5p=|
|
| Gtr VI
| Q  H         E E   Q  H         E E   Q  H         E E   Q  H         E E
|------------------|------------------|------------------|-3--------------3--|
|-3--------------3-|-5--------------5-|-8--------------8-|-------------------|
|------------------|------------------|------------------|-3--------------3--|
|-3--------------3-|-5--------------5-|-5--------------5-|-------------------|
|------------------|------------------|------------------|-------------------|
|------------------|------------------|------------------|-------------------|

  F5             F5  E5             E5  G5             G5  A5   A5
     PM--------|        PM--------|        PM--------|               ~~~~~
  Q  S S E E E E E   Q  S S E E E E E   Q  S S E E E E E   Q  E E E  Q  E
|------------------|------------------|------------------|-----------------|
|------------------|------------------|------------------|-----------------|
|------------------|------------------|------------------|-----------------|
|-3--------------3p|=2--------------2h|=5--------------5h|=7----7----------|
|-3--------------3-|-2--------------2-|-5--------------5-|-7----7---/8--7--|
|-3--0-0-0-0-0-0-3p|=2--0-0-0-0-0-0-2h|=5--0-0-0-0-0-0-5h|=7--0-7-0--------|
|
|                                                          ~
| Q  H         E E   Q  H         E E   Q  H         E E   W
|------------------|------------------|-3--------------3-|-5---------------|
|-8--------------8-|-5--------------5-|------------------|-----------------|
|------------------|------------------|-3--------------3-|-5---------------|
|-5--------------5-|-5--------------5-|------------------|-----------------|
|------------------|------------------|------------------|-----------------|
|------------------|------------------|------------------|-----------------|

  D5                Bb5
  Gtrs I, II
  Q.    Q   E E E    Q   Q   E E  Q
|-----------------|------------------|
|-----------------|------------------|
|-----------------|--3---3---3-3--3--|
|-0-----0---0-0-0-|--3---3---3-3--3--|
|-0-----0---0-0-0-|--1---1---1-1--1--|
|-0-----0---0-0-0-|------------------|
|
| Gtr V
| Q   Q   E Q   E    Q   Q   Q    Q
|-----------------|------------------|
|-----------------|------------------|
|-7---7---7-7---7s|=10--14--12---10--|
|-x---x---x-x---x-|------x---x----x--|
|-5---5---5-5---5s|==8--12--10----8--|
|-----------------|------------------|

  Bb5                     G5
  Q    Q     E  E  Q       Q.     Q     E  E E
|-----------------------|----------------------|
|-----------------------|----------------------|
|-3----3-----3--3--3----|----------------------|
|-3----3-----3--3--3----|--5------5-----5--5-5-|
|-1----1-----1--1--1----|--5------5-----5--5-5-|
|-----------------------|--5------5-----5--5-5-|
|
| E  Q    E  E  E  E  E    Q    Q    E  Q.
|-----------------------|----------------------|
|-----------------------|----------------------|
|-7s10---10-10-10-10-10-|-12---12---12-12------|
|-x-------x--x--x--x--x-|--x----x----x--x------|
|-5s=8----8--8--8--8--8-|-10---10---10-10------|
|-----------------------|----------------------|

  D5                Bb5                Bb5                   G5
  Q.    Q   E E E    Q   Q   E E  Q     Q   Q   E  E  Q      Q.    Q   Q.
|-----------------|------------------|---------------------|-----------------|
|-----------------|------------------|---------------------|-----------------|
|-----------------|--3---3---3-3--3--|--3---3---3--3--3----|-----------------|
|-0-----0---0-0-0-|--3---3---3-3--3--|--3---3---3--3--3----|-5-----5---5-----|
|-0-----0---0-0-0-|--1---1---1-1--1--|--1---1---1--1--1----|-5-----5---5-----|
|-0-----0---0-0-0-|------------------|---------------------|-5-----5---5-----|
|
| Q   Q   E Q   E    Q   Q   Q    Q     Q   Q   E  E  E  E   Q   Q   Q    Q
|-----------------|------------------|---------------------|-----------------|
|-----------------|------------------|---------------------|-----------------|
|-7---7---7-7---7s|=10--14--12---10--|-10--10--10-10-10-10-|-7---7---7----7--|
|-x---x---x-x---x-|------x---x----x--|--x---x---x--x--x--x-|-x---x---x----x--|
|-5---5---5-5---5s|==8--12--10----8--|--8---8---8--8--8--8-|-5---5---5----5--|
|-----------------|------------------|---------------------|-----------------|

  D5                   C5                  Am/F              Bb/G
   Q   E  E  E E  Q     Q   E E  E E  Q    Q   E E E E Q     Q   E E E E Q
|--------------------|-------------------|-----------------|----------------|
|--------------------|-------------------|-----------------|----------------|
|--7---7--7--7-7--7--|--5---5-5--5-5--5--|-----------------|----------------|
|--7---7--7--7-7--7--|--5---5-5--5-5--5--|-7---7-7-7-7-7---|-8---8-8-8-8-8--|
|--5---5--5--5-5--5--|--3---3-3--3-3--3--|-3---3-3-3-3-3---|-5---5-5-5-5-5--|
|--------------------|-------------------|-3---3-3-3-3-3---|-5---5-5-5-5-5--|
|
|  Q   E  E  Q    Q     Q   Q    Q    Q    E E E E E E E E   E E E E E E Q
|--------------------|-------------------|-----------------|----------------|
|--------------------|-------------------|-----------------|----------------|
|-10--10s14-17---14--|-17--15---14---10--|-5-5-5-5-5-5-5-5-|-7-7-7-7-7-7-7--|
|--x---x-----x----x--|--x---x----x----x--|-x-x-x-x-x-x-x-x-|-x-x-x-x-x-x-x--|
|--8---8s12-15---12--|-15--13---12----8--|-3-3-3-3-3-3-3-3-|-5-5-5-5-5-5-5--|
|--------------------|-------------------|-----------------|----------------|

  D5                   C5                  Am/F              Bb/G
   Q   E  E  E E  Q     Q   E E  E E  Q    Q   E E E E Q      Q   E E  E E Q
|--------------------|-------------------|-----------------|------------------||
|--------------------|-------------------|-----------------|------------------||
|--7---7--7--7-7--7--|--5---5-5--5-5--5--|-----------------|------------------||
|--7---7--7--7-7--7--|--5---5-5--5-5--5--|-7---7-7-7-7-7---|--8---8-8--8-8-8--||
|--5---5--5--5-5--5--|--3---3-3--3-3--3--|-3---3-3-3-3-3---|--5---5-5--5-5-5--||
|--------------------|-------------------|-3---3-3-3-3-3---|--5---5-5--5-5-5--||
|
|  Q   E  E  Q    Q     Q   Q    Q    Q    E E E E E E E E    Q   Q    H
|--------------------|-------------------|-----------------|------------------||
|--------------------|-------------------|-----------------|------------------||
|-10--10s14-17---14--|-17--15---14---10--|-5-5-5-5-5-5-5-5-|-10--12---10------||
|--x---x-----x----x--|--x---x----x----x--|-x-x-x-x-x-x-x-x-|--x---x----x------||
|--8---8s12-15---12--|-15--13---12----8--|-3-3-3-3-3-3-3-3-|--8--10----8------||
|--------------------|-------------------|-----------------|------------------||

   Interlude
    Gtrs I, II
        PM--|     PM--|     PM        PM--|       PM--|   PM
    E E S S E E E S S E   E E E E E E S S E   E E S S E E E E E
||----------------------|-------------------|--------------------||
||o---------------------|-------------------|-------------------o||
||----------------------|-------------------|--------------------||
||--3p2-------3p2-------|-2---2h3-----------|--------------------||
||o---------------------|---------5p3-------|-5p3-------3---3h5-o||
||------0-0-0-----0-0-0-|---0---------0-0-0-|-----0-0-0---0------||

      PM--|     PM--|     PM        PM--|       PM--|   PM
  E E S S E E E S S E   E E E E E E S S E   E E S S E E E E E
|---------------------|-------------------|-------------------||
|---------------------|-------------------|-------------------||
|---------------------|-------------------|-------------------||
|-7p5-------7p5-------|-5---5h7S5p3-------|-5-3-------3---3h5-||
|---------------------|-------------------|-------------------||
|-----5-5-5-----5-5-5-|---5---------3-3-3-|-----3-3-3---3-----||

   Pre-Solo
    Gtr V
      ~~                                    ~~~~~~~~~~~~~~~~~
    a H.             Q       E +E     +Q    H            +W
||-------------------------|--------------------------|-----------------------||
||o------------------------|--------------------------|----------------------o||
||--5s7--------------------|-9-(9)b10r(9)-------------|-----------------------||
||------------------10-----|---------------10---------|-(10)------------------||
||o------------------------|--------------------------|----------------------o||
||-------------------------|--------------------------|-----------------------||
|
|   Gtr I
|         PM--|      PM--|      PM              PM--|         PM--|   PM
|     E E S S E E E  S S E   E  E      E E  E E S S E     E E S S E E E E E
||-------------------------|--------------------------|-----------------------||
||o------------------------|--------------------------|----------------------o||
||-------------------------|--------------------------|-----------------------||
||----3p2-------3p2--------|-2---------2h3------------|-----------------------||
||o------------------------|----------------5p3-------|---5p3-------3---3h5--o||
||--------0-0-0------0-0-0-|----0---------------0-0-0-|-------0-0-0---0-------||
|
|   Gtr II
|         PM--|      PM--|      PM              PM--|         PM--|   PM
|     E E S S E E E  S S E   E  E      E E  E E S S E     E E S S E E E E E
||-------------------------|--------------------------|-----------------------||
||o------------------------|--------------------------|----------------------o||
||-------------------------|--------------------------|-----------------------||
||-------------------------|--------------------------|-----------------------||
||o---5p3-------5p3--------|-3---------3h5--2h3-------|---2h3-------3---3p2--o||
||--------0-0-0------0-0-0-|----0---------------0-0-0-|-------0-0-0---0-------||

  Gtr V
   ~~~                                   ~~~~~
   W                      E    +E  +E +E H
|----------------------|-------------------------------|
|----------------------|-------------------------------|
|-/7-------------------|--9b10-(9)-(9)(9)9pb10---------|
|----------------------|-------------------------------|
|----------------------|-------------------------------|
|----------------------|-------------------------------|
|
| Gtr III
|  <                      <
|  W                     +W
|----------------------|-------------------------------|
|----------------------|-------------------------------|
|-<3>------------------|-(3)---------------------------|
|----------------------|-------------------------------|
|----------------------|-------------------------------|
|----------------------|-------------------------------|
|
| Gtrs I, II
|      PM--|     PM--|          PM               PM--|
|  E E S S E E E S S E    E     E   E  E E     E S S E
|----------------------|-------------------------------|
|----------------------|-------------------------------|
|----------------------|-------------------------------|
|--7p5-------7p5-------|--5---------5h=7S5p====3-------|
|----------------------|-------------------------------|
|------5-5-5-----5-5-5-|--------5----------------3-3-3-|

                 ~~~~~~~~~~~~~~~
   |-3--| |-3-|
   S  S S S S S  H          +Q
|---------------------------------||
|---------------<3>---------(3)---||
|-----------0h2-------------------||
|-------2h3-----------------------||
|--5s=3---------------------------||
|---------------------------------||
|
|  <
| +W
|---------------------------------||
|---------------------------------||
|-(3)-----------------------------||
|---------------------------------||
|---------------------------------||
|---------------------------------||
|
|                PM---|   PM
|  E      E      S  S E E E  E E
|---------------------------------||
|---------------------------------||
|---------------------------------||
|--5------3-------------3----3h5--||
|---------------------------------||
|----------------3--3-3---3-------||

 Guitar Solo
  D5       F5      G5     Bb5      G5      A5
  Gtrs I, II
   Q.      Q.      Q       Q.      Q.      Q
   |       |       |       |       |       |
   /       /       /       /       /       /

  Gtr V
   ~~~~~~~~~~~~~~~~~~~~~~~~~~~~~~~~~~~~~~~~~~~~~~
  +W                      +S
|-----------------------|-----------------------|
|-(3)-------------------|-(3)-------------------|
|-----------------------|-----------------------|
|-----------------------|-----------------------|
|-----------------------|-----------------------|
|-----------------------|-----------------------|
|
| Gtr III
|  ~~~~~~~~~~~~~~~~~~~~~~~~~~~~~~~~~~~~~~~~~~~~~~
|  W                      +W
|-----------------------|-----------------------|
|-----------------------|-----------------------|
|-[3]-------------------|-(3)-------------------|
|-----------------------|-----------------------|
|-----------------------|-----------------------|
|-----------------------|-----------------------|
|
| Gtr IV
|                          \2
|  W                      +W
|-----------------------|-----------------------|
|-----------------------|-----------------------|
|-<5>-------------------|-(5)-------------------|
|-<5>-------------------|-(5)-------------------|
|-----------------------|-----------------------|
|-----------------------|-----------------------|

  F5         G5             E5      F5
   Q.        H        +E     Q.     H    +E
   |         |         |     |      |     |
   /         /         /     /      /     /

 ~~~~~~~~~~~~~~~~~~~~~~~~~~~~~~~~~
  +W                        +W
|-------------------------|-----------------|
|-(3)---------------------|-(3)-------------|
|-------------------------|-----------------|
|-------------------------|-----------------|
|-------------------------|-----------------|
|-------------------------|-----------------|
|
|  \1.5
|~~~~~~~~~~~~~~~~~~~~~~~~~~~~~~~~~
| +W                        +W
|-------------------------|-----------------|
|-------------------------|-----------------|
|-(3)---------------------|-(3)-------------|
|-------------------------|-----------------|
|-------------------------|-----------------|
|-------------------------|-----------------|
|
|                            \5.5
| +W                        +W
|-------------------------|-----------------|
|-------------------------|-----------------|
|-(5)---------------------|-(5)-------------|
|-(5)---------------------|-(5)-------------|
|-------------------------|-----------------|
|-------------------------|-----------------|

  D5      F5      G5    Bb5     G5      A5        F5           G5
   Q.      Q.     Q      Q.      Q.     Q           Q.           H          +E
   |       |      |      |       |      |           |                           |    |
   /       /      /      /       /      /       /    /           /

        ~~~~~                 ~~~~~
                                                    |--3---|  |--3--|  |--3--|  |--3--|
   Q.      H        E    Q.   H   +E      S   S  S  S  S  S  S  S  S  S  S S
|-15b17---15b17-------|-15b17---15b17-----(15)\-|---------------------15------------|
|-------------------x-|-------------------------|-/17--------18p17-------15---------|
|-------------------x-|-------------------------|------17----------17-------15------|
|---------------------|-------------------------|---------17------------------------|
|---------------------|-------------------------|-----------------------------------|
|---------------------|-------------------------|-----------------------------------|

|--3---|  |--3--|  |--3--|  |--3--|
S   S  S  S  S  S  S  S  S  S  S  S
17p13-----------17p13---------------------------|
--15--------------15----------------15h17-------|
-----14--------------14----------15-------------|
---------15-------------15----17----------------|
---------------------------17-------------------|
------------------------------------------------|

|
|  \2                                               \5
|  W                    +W                         +H                                   +H
|-<3>-----------------|-(3)---------------------|--(3)-----------------------------|
|-<3>-----------------|-(3)---------------------|--(3)-----------------------------|
|---------------------|-------------------------|----------------------------------|
|---------------------|-------------------------|----------------------------------|
|---------------------|-------------------------|----------------------------------|
|---------------------|-------------------------|----------------------------------|

-----(3)----------------------------------|
-----(3)----------------------------------|
------------------------------------------|
------------------------------------------|
------------------------------------------|
------------------------------------------|

|
|  \6
|  W                    +W                         +W
|-<5>-----------------|-(5)---------------------|--(5)-----------------------------|
|-<5>-----------------|-(5)---------------------|--(5)-----------------------------|
|---------------------|-------------------------|----------------------------------|
|---------------------|-------------------------|----------------------------------|
|---------------------|-------------------------|----------------------------------|
|---------------------|-------------------------|----------------------------------|

------------------------------------------|
------------------------------------------|
------------------------------------------|
------------------------------------------|
------------------------------------------|
------------------------------------------|

  E5                           F5
   Q.                           H                                    +E
   |                            |                                     |
   /                            /                                     /

   |--3---|  |--3--|  |--3---|  |--3--|  |--3---|  |--3--|  |--3---|  |--3--|
   S   S  S  S  S  S  S   S  S  S  S  S  S   S  S  S  S  S  S   S  S  S  S  S
|--------17p15-------17p=15----------15h17--18p17-18h20-17h18p=17-18h20p18-------||
|-18p=15-------18p15--------18p15-17---------------------------------------20----||
|--------------------------------------------------------------------------------||
|--------------------------------------------------------------------------------||
|--------------------------------------------------------------------------------||
|--------------------------------------------------------------------------------||
|
|                     /                  \7
| +Q                 +Q                 +Q                 +Q
|-(3)----------------(3)----------------(3)----------------(3)-------------------||
|-(3)----------------(3)----------------(3)----------------(3)-------------------||
|--------------------------------------------------------------------------------||
|--------------------------------------------------------------------------------||
|--------------------------------------------------------------------------------||
|--------------------------------------------------------------------------------||
|
| +W
|-(5)----------------------------------------------------------------------------||
|-(5)----------------------------------------------------------------------------||
|--------------------------------------------------------------------------------||
|--------------------------------------------------------------------------------||
|--------------------------------------------------------------------------------||
|--------------------------------------------------------------------------------||

 Chorus
  D5                           D5      E5             E5
  Gtrs I, II
          PM-----------|                  PM--------|
   Q      S S E   E  E   E       E     Q  S S E E E E E
|------------------------------------|------------------|
|------------------------------------|------------------|
|------------------------------------|------------------|
|--0-----------------------------0h==|=2--------------2h|
|--0-----------------------------0---|-2--------------2-|
|--0------0-0-0---0--0---0-------0h==|=2--0-0-0-0-0-0-2h|
|
| Gtr VI
|  Q      H              E       E     Q  H         E E
|------------------------------------|------------------|
|--3-----------------------------3---|-5--------------5-|
|------------------------------------|------------------|
|--3-----------------------------3---|-5--------------5-|
|------------------------------------|------------------|
|------------------------------------|------------------|
|
| Gtr V
|  H             +Q     +E      +E     W
|-20b22=========(20)r==(20)b22r(20)\-|------------------|
|------------------------------------|------------------|
|------------------------------------|------------------|
|------------------------------------|------------------|
|------------------------------------|------------------|
|------------------------------------|------------------|

  F5             F5  G5             G5
     PM--------|        PM--------|
  Q  S S E E E E E   Q  S S E E E E E
|------------------|-------------------|
|------------------|-------------------|
|------------------|-------------------|
|-3--------------3h|=5--------------5p=|
|-3--------------3-|-5--------------5--|
|-3--0-0-0-0-0-0-3h|=5--0-0-0-0-0-0-5p=|
|
| Q  H         E E   Q  H         E E
|------------------|-3--------------3--|
|-8--------------8-|-------------------|
|------------------|-3--------------3--|
|-5--------------5-|-------------------|
|------------------|-------------------|
|------------------|-------------------|
|
| W                  W
|------------------|-------------------|
|------------------|-------------------|
|------------------|-------------------|
|------------------|-------------------|
|------------------|-------------------|
|------------------|-------------------|

  F5             F5  E5             E5  G5             G5  A5   A5
     PM--------|        PM--------|        PM--------|               ~~~~~
  Q  S S E E E E E   Q  S S E E E E E   Q  S S E E E E E   Q  E E E  Q  E
|------------------|------------------|------------------|-----------------|
|------------------|------------------|------------------|-----------------|
|------------------|------------------|------------------|-----------------|
|-3--------------3p|=2--------------2h|=5--------------5h|=7----7----------|
|-3--------------3-|-2--------------2-|-5--------------5-|-7----7---/8--7--|
|-3--0-0-0-0-0-0-3p|=2--0-0-0-0-0-0-2h|=5--0-0-0-0-0-0-5h|=7--0-7-0--------|
|
|                                                          ~
| Q  H         E E   Q  H         E E   Q  H         E E   W
|------------------|------------------|-3--------------3-|-5---------------|
|-8--------------8-|-5--------------5-|------------------|-----------------|
|------------------|------------------|-3--------------3-|-5---------------|
|-5--------------5-|-5--------------5-|------------------|-----------------|
|------------------|------------------|------------------|-----------------|
|------------------|------------------|------------------|-----------------|

  D5                Bb5
  Gtrs I, II
  Q.    Q   E E E    Q   Q   E E  Q
|-----------------|------------------|
|-----------------|------------------|
|-----------------|--3---3---3-3--3--|
|-0-----0---0-0-0-|--3---3---3-3--3--|
|-0-----0---0-0-0-|--1---1---1-1--1--|
|-0-----0---0-0-0-|------------------|
|
| Gtr V
| Q   Q   E Q   E    Q   Q   Q    Q
|-----------------|------------------|
|-----------------|------------------|
|-7---7---7-7---7s|=10--14--12---10--|
|-x---x---x-x---x-|------x---x----x--|
|-5---5---5-5---5s|==8--12--10----8--|
|-----------------|------------------|

  Bb5                     G5
  Q    Q     E  E  Q       Q.     Q     E  E E
|-----------------------|----------------------|
|-----------------------|----------------------|
|-3----3-----3--3--3----|----------------------|
|-3----3-----3--3--3----|--5------5-----5--5-5-|
|-1----1-----1--1--1----|--5------5-----5--5-5-|
|-----------------------|--5------5-----5--5-5-|
|
| E  Q    E  E  E  E  E    Q    Q    E  Q.
|-----------------------|----------------------|
|-----------------------|----------------------|
|-7s10---10-10-10-10-10-|-12---12---12-12------|
|-x-------x--x--x--x--x-|--x----x----x--x------|
|-5s=8----8--8--8--8--8-|-10---10---10-10------|
|-----------------------|----------------------|

  D5                Bb5                Bb5                   G5
  Q.    Q   E E E    Q   Q   E E  Q     Q   Q   E  E  Q      Q.    Q   Q.
|-----------------|------------------|---------------------|-----------------|
|-----------------|------------------|---------------------|-----------------|
|-----------------|--3---3---3-3--3--|--3---3---3--3--3----|-----------------|
|-0-----0---0-0-0-|--3---3---3-3--3--|--3---3---3--3--3----|-5-----5---5-----|
|-0-----0---0-0-0-|--1---1---1-1--1--|--1---1---1--1--1----|-5-----5---5-----|
|-0-----0---0-0-0-|------------------|---------------------|-5-----5---5-----|
|
| Q   Q   E Q   E    Q   Q   Q    Q     Q   Q   E  E  E  E   Q   Q   Q    Q
|-----------------|------------------|---------------------|-----------------|
|-----------------|------------------|---------------------|-----------------|
|-7---7---7-7---7s|=10--14--12---10--|-10--10--10-10-10-10-|-7---7---7----7--|
|-x---x---x-x---x-|------x---x----x--|--x---x---x--x--x--x-|-x---x---x----x--|
|-5---5---5-5---5s|==8--12--10----8--|--8---8---8--8--8--8-|-5---5---5----5--|
|-----------------|------------------|---------------------|-----------------|

  D5                   C5                  Am/F              Bb/G
   Q   E  E  E E  Q     Q   E E  E E  Q    Q   E E E E Q     Q   E E E E Q
|--------------------|-------------------|-----------------|----------------|
|--------------------|-------------------|-----------------|----------------|
|--7---7--7--7-7--7--|--5---5-5--5-5--5--|-----------------|----------------|
|--7---7--7--7-7--7--|--5---5-5--5-5--5--|-7---7-7-7-7-7---|-8---8-8-8-8-8--|
|--5---5--5--5-5--5--|--3---3-3--3-3--3--|-3---3-3-3-3-3---|-5---5-5-5-5-5--|
|--------------------|-------------------|-3---3-3-3-3-3---|-5---5-5-5-5-5--|
|
|  Q   E  E  Q    Q     Q   Q    Q    Q    E E E E E E E E   E E E E E E Q
|--------------------|-------------------|-----------------|----------------|
|--------------------|-------------------|-----------------|----------------|
|-10--10s14-17---14--|-17--15---14---10--|-5-5-5-5-5-5-5-5-|-7-7-7-7-7-7-7--|
|--x---x-----x----x--|--x---x----x----x--|-x-x-x-x-x-x-x-x-|-x-x-x-x-x-x-x--|
|--8---8s12-15---12--|-15--13---12----8--|-3-3-3-3-3-3-3-3-|-5-5-5-5-5-5-5--|
|--------------------|-------------------|-----------------|----------------|

  D5                   C5                  Am/F              Bb/G
   Q   E  E  E E  Q     Q   E E  E E  Q    Q   E E E E Q      Q   E E  E E Q
|--------------------|-------------------|-----------------|------------------||
|--------------------|-------------------|-----------------|------------------||
|--7---7--7--7-7--7--|--5---5-5--5-5--5--|-----------------|------------------||
|--7---7--7--7-7--7--|--5---5-5--5-5--5--|-7---7-7-7-7-7---|--8---8-8--8-8-8--||
|--5---5--5--5-5--5--|--3---3-3--3-3--3--|-3---3-3-3-3-3---|--5---5-5--5-5-5--||
|--------------------|-------------------|-3---3-3-3-3-3---|--5---5-5--5-5-5--||
|
|  Q   E  E  Q    Q     Q   Q    Q    Q    E E E E E E E E    Q   Q    H
|--------------------|-------------------|-----------------|------------------||
|--------------------|-------------------|-----------------|------------------||
|-10--10s14-17---14--|-17--15---14---10--|-5-5-5-5-5-5-5-5-|-10--12---10------||
|--x---x-----x----x--|--x---x----x----x--|-x-x-x-x-x-x-x-x-|--x---x----x------||
|--8---8s12-15---12--|-15--13---12----8--|-3-3-3-3-3-3-3-3-|--8--10----8------||
|--------------------|-------------------|-----------------|------------------||

 Outro
                                                               D5
  Gtrs I, II
  PM------------------|     ~~   PM------------------|           PM
  Q.   Q.   Q    Q.   Q  E  Q    Q.   Q.   Q    Q.   Q  E  Q     h    H
|--------------|---------------|--------------|----------------|-----------*|
|--------------|---------------|--------------|----------------|-----------*|
|--------------|---------------|--------------|----------------|-----------*|
|--------------|---------------|--------------|----------------|-----------*|
|--------------|---------------|--------------|----------------|-0---------*|
|-0----0----0--|-0----0--3s12--|-0----0----0--|-0----0--3s12\--|-0---------*|

devamelodica | May 24th, 2012 | No Comments
      Pin It








  • BACA JUGA

  • Recent Comments



  • theme by Chivaz [dot] net | Komputer | Gadget | Informasi | Game Gratis | Video