YOUTH AND LIFESTYLE

Tablature dan melodi Gitar Gunslinger Avenged Sevenfold

Gtr I (D A D G B E) - 'Acoustic I'
Gtr II (D A D G B E) - 'Acoustic II'
Gtr III (D A D G B E) - 'Jazz Guitar'
Gtr IV (D A D G B E) - 'Rhythm Guitar I'
Gtr V (D A D G B E) - 'Rhythm Guitar II'
Gtr VI (D A D G B E) - 'Lead Guitar'


 Intro
  Q=162
 4/4
  Gtr I
                                                          PM|
  E Q  E Q  E E   +E  E E E E E E E   Q  E Q  E E E   Q   E E Q    Q
|---------------|-------------------|---------------|------------------|
|---------------|---------3-3-3-3---|---------3-3-3-|-3----------------|
|-2----2----2---|-----2---2-2-2-2-2-|----2----2-2-2-|-2----------------|
|---0----0----0-|-(0)---3-0-0-0-0---|-0----0--0-0-0-|-0---2-2-3--------|
|---------------|-------------------|---------------|-----0-0------0---|
|---------------|-------------------|---------------|------------------|
|
| Gtr II
| W                W                  W               Q   Q   E  Q   E
|---------------|-------------------|---------------|----/5s==x-/3s==x-|
|---------------|-------------------|---------------|------------------|
|---------------|-------------------|---------------|------------------|
|---------------|-------------------|---------------|------------------|
|---------------|-------------------|---------------|------------------|
|---------------|-------------------|---------------|------------------|

  E Q    E Q  E E   +E   E E E E E E E
|-----------------|----------------------|
|-----------------|----------3-3-3-3-----|
|-2------2----2---|------2---2-2-2-2-2---|
|---0------0----0-|-(0)----3-0-0-0-0-----|
|-----------------|----------------------|
|-----------------|----------------------|
|
|     ~~
| E E H.            +H..             E
|-----------------|----------------------|
|-3s6-6-----------|-(6)------------------|
|-----------------|------------------5b7-|
|-----------------|----------------------|
|-----------------|----------------------|
|-----------------|----------------------|

                            PM|
   Q   E Q  E E E    Q      E  E Q  Q
|-----------------|---------------------|
|-----------3-3-3-|--3------------------|
|------2----2-2-2-|--2------------------|
|--0-----0--0-0-0-|--0------2--2-3------|
|-----------------|---------0--0----0---|
|-----------------|---------------------|
|
| +W                +E   q     H      E
|-----------------|---------------------|
|-----------------|-----/6\---/6s=====x-|
|-(5)-------------|-(5)-----------------|
|-----------------|---------------------|
|-----------------|---------------------|
|-----------------|---------------------|

                                                                 PM-|
  E    Q     E Q  E E   +E  E E E E E E E    Q   E Q  E E E   Q  E  E Q  Q
|---------------------|-------------------|-----------------|---------------|
|---------------------|---------3-3-3-3---|-----------3-3-3-|-3-------------|
|-2----------2----2---|-----2---2-2-2-2-2-|------2----2-2-2-|-2-------------|
|------0-------0----0-|-(0)---3-0-0-0-0---|--0-----0--0-0-0-|-0--2--2-3-----|
|---------------------|-------------------|-----------------|----0--0----0--|
|---------------------|-------------------|-----------------|---------------|
|
|         ~~~~~~~~~~~~~~~~~~~~~~~~~~~~~~~~~~~~~~                 ~~
| Q      +H.            +W                  +W                Q  H.
|-8b10---(8)----------|-(8)---------------|-(8)-------------|-8s=3----------|
|---------------------|-------------------|-----------------|---------------|
|---------------------|-------------------|-----------------|---------------|
|---------------------|-------------------|-----------------|---------------|
|---------------------|-------------------|-----------------|---------------|
|---------------------|-------------------|-----------------|---------------|

                                                           PM|
  E Q    E Q  E E   +E  E E E E E E E   Q  E Q  E E E   Q  E E Q  Q
|-----------------|-------------------|---------------|--------------||
|-----------------|---------3-3-3-3---|---------3-3-3-|-3------------||
|-2------2----2---|-----2---2-2-2-2-2-|----2----2-2-2-|-2------------||
|---0------0----0-|-(0)---3-0-0-0-0---|-0----0--0-0-0-|-0--2-2-3-----||
|-----------------|-------------------|---------------|----0-0----0--||
|-----------------|-------------------|---------------|--------------||
|
| E E H.             W                  W               W
|-x-x-------------|-------------------|---------------|--------------||
|-x-x-------------|-------------------|---------------|--------------||
|-x-x-------------|-------------------|---------------|--------------||
|-----------------|-------------------|---------------|--------------||
|-----------------|-------------------|---------------|--------------||
|-----------------|-------------------|---------------|--------------||

 Verse
  Q        E  E  E Q  E    Q.   E  E  E Q
|-1--------1--1--1-1--1-|--1----1--1--1-1--|
|-3--------3--3--3-3--3-|--3----3--3--3-3--|
|-3--------3--3--3-3--3-|--3----3--3--3-3--|
|-3--------3-(3)-3-3--3-|--3----3-(3)-3-3--|
|-1--------1-(1)-1-1--1-|--1----1-(1)-1-1--|
|-----------------------|------------------|
|
|      ~~~~~~~~~~~~~~~~~~~~~~~
| E   +H..                +W
|-----------------------|------------------|
|-----------------------|------------------|
|-5b7-(5)---------------|-(5)--------------|
|-----------------------|------------------|
|-----------------------|------------------|
|-----------------------|------------------|

  Q        E  E  E Q  E    Q.   E  E  E Q
|-1--------1--1--1-1--1-|--1----1--1--1-1--|
|-1--------1--1--1-1--1-|--1----1--1--1-1--|
|-0--------0--0--0-0--0-|--0----0--0--0-0--|
|-3--------3-(3)-3-3--3-|--3----3-(3)-3-3--|
|-3--------3-(3)-3-3--3-|--3----3-(3)-3-3--|
|-----------------------|------------------|
|
|      ~~~~~~~~~~~~~~~~~~~~~~~
| E   +H..                +W
|-----------------------|------------------|
|-----------------------|------------------|
|-7b9-(7)---------------|-(7)--------------|
|-----------------------|------------------|
|-----------------------|------------------|
|-----------------------|------------------|

  E     Q    E Q  E E   +E  E E E E      E   E  E
|---------------------|---------------------------|
|---------------------|---------3-3------3---3----|
|-2----------2----2---|-----2---2-2------2---2--2-|
|-------0------0----0-|-(0)---3-0-0------0---0----|
|---------------------|---------------------------|
|---------------------|---------------------------|
|
|       ~~~~~~~~~~~~~~~~~~~~                    ~~~
| E    +H..             +H        E     +E  +E  E
|-8b10-(8)------------|-(8)-------8b10==(8)-(8)r8-|
|---------------------|---------------------------|
|---------------------|---------------------------|
|---------------------|---------------------------|
|---------------------|---------------------------|
|---------------------|---------------------------|

                          PM|
   Q   E Q     E E E   Q  E E Q         Q
|--------------------|--------------------------|
|--------------3-3-3-|-3------------------------|
|------2-------2-2-2-|-2------------------------|
|--0-----0-----0-0-0-|-0--2-2-3-----------------|
|--------------------|----0-0-----------0-------|
|--------------------|--------------------------|
|
|~~~~~
| +H       +E  E E E   H      E    +E  +E    E
|-(8)------(8)sx-5s8p|=5------------------------|
|--------------------|--------8b10-(8)-(8)\-/6\-|
|--------------------|--------------------------|
|--------------------|--------------------------|
|--------------------|--------------------------|
|--------------------|--------------------------|

                                                              PM|
  E    Q    E Q  E E   +E  E E E E E E E   Q  E Q  E E E   Q  E E Q  Q
|--------------------|-------------------|---------------|--------------|
|--------------------|---------3-3-3-3---|---------3-3-3-|-3------------|
|-2---------2----2---|-----2---2-2-2-2-2-|----2----2-2-2-|-2------------|
|------0------0----0-|-(0)---3-0-0-0-0---|-0----0--0-0-0-|-0--2-2-3-----|
|--------------------|-------------------|---------------|----0-0----0--|
|--------------------|-------------------|---------------|--------------|
|
|      ~~~~~~~~~~~~~~~~~~~~
| E   +H..             +W                  W               W
|--------------------|-------------------|---------------|--------------|
|--------------------|-------------------|---------------|--------------|
|-5b7-(5)------------|-(5)---------------|---------------|--------------|
|--------------------|-------------------|---------------|--------------|
|--------------------|-------------------|---------------|--------------|
|--------------------|-------------------|---------------|--------------|

                                                         PM|
  E Q  E Q  E E   +E  E E E E E E E   Q  E Q  E E E   Q  E E Q  Q
|---------------|-------------------|---------------|--------------|
|---------------|---------3-3-3-3---|---------3-3-3-|-3------------|
|-2----2----2---|-----2---2-2-2-2-2-|----2----2-2-2-|-2------------|
|---0----0----0-|-(0)---3-0-0-0-0---|-0----0--0-0-0-|-0--2-2-3-----|
|---------------|-------------------|---------------|----0-0----0--|
|---------------|-------------------|---------------|--------------|
|
| W                W                  W               W
|---------------|-------------------|---------------|--------------|
|---------------|-------------------|---------------|--------------|
|---------------|-------------------|---------------|--------------|
|---------------|-------------------|---------------|--------------|
|---------------|-------------------|---------------|--------------|
|---------------|-------------------|---------------|--------------|

  Q        E  E  E Q  E    Q.   E  E  E Q
|-1--------1--1--1-1--1-|--1----1--1--1-1--|
|-3--------3--3--3-3--3-|--3----3--3--3-3--|
|-3--------3--3--3-3--3-|--3----3--3--3-3--|
|-3--------3-(3)-3-3--3-|--3----3-(3)-3-3--|
|-1--------1-(1)-1-1--1-|--1----1-(1)-1-1--|
|-----------------------|------------------|
|
|      ~~~~~~~~~~~~~~~~~~~~~~~
| E   +H..                +W
|-----------------------|------------------|
|-----------------------|------------------|
|-5b7-(5)---------------|-(5)--------------|
|-----------------------|------------------|
|-----------------------|------------------|
|-----------------------|------------------|

  Q        E  E  E Q  E    Q.   E  E  E Q
|-1--------1--1--1-1--1-|--1----1--1--1-1--|
|-1--------1--1--1-1--1-|--1----1--1--1-1--|
|-0--------0--0--0-0--0-|--0----0--0--0-0--|
|-3--------3-(3)-3-3--3-|--3----3-(3)-3-3--|
|-3--------3-(3)-3-3--3-|--3----3-(3)-3-3--|
|-----------------------|------------------|
|
|      ~~~~~~~~~~~~~~~~~~~~~~~
| E   +H..                +W
|-----------------------|------------------|
|-----------------------|------------------|
|-7b9-(7)---------------|-(7)--------------|
|-----------------------|------------------|
|-----------------------|------------------|
|-----------------------|------------------|

    Gtr III
    W                  +W
    |                   |
    o                   /

    Q     E E E Q  E    Q.   E E E Q
||--1-----1-1-1-1--1-|--1----1-1-1-1--|
||o-3-----3-3-3-3--3-|--3----3-3-3-3--|
||--2-----2-2-2-2--2-|--2----2-2-2-2--|
||--0-----0-0-0-0--0-|--0----0-0-0-0--|
||o------------------|----------------|
||-------------------|----------------|
|
|     ~~~~~~~~~~~~~~~~~~~~~
|   E H..              +W
||-------------------|----------------|
||o------------------|----------------|
||--9s7--------------|-(7)------------|
||-------------------|----------------|
||o------------------|----------------|
||-------------------|----------------|

  E      E   H.              +W
  |      |   |                |
  o      o   o                /

  Q          E   E  E Q  E    Q.   E  E  E Q
|-1----------1---1--1-1--1-|--1----1--1--1-1--|
|-1----------1---1--1-1--1-|--1----1--1--1-1--|
|-0----------0---0--0-0--0-|--0----0--0--0-0--|
|-3----------3--(3)-3-3--3-|--3----3-(3)-3-3--|
|-3----------3--(3)-3-3--3-|--3----3-(3)-3-3--|
|--------------------------|------------------|
|
|        ~~~~~~~~~~~~~~~~~~~~~~~~
| S S   +H..                 +W
|--------------------------|------------------|
|--------------------------|------------------|
|-5s7b9-(7)----------------|-(7)--------------|
|--------------------------|------------------|
|--------------------------|------------------|
|--------------------------|------------------|

  W                  +W
  |                   |
  o                   /

  Q     E E E Q  E    Q.   E E E Q
|-0-----0-0-0-0--0-|--0----0-0-0-0--|
|-1-----1-1-1-1--1-|--1----1-1-1-1--|
|-2-----2-2-2-2--2-|--2----2-2-2-2--|
|-2-----2-2-2-2--2-|--2----2-2-2-2--|
|-0-----0-0-0-0--0-|--0----0-0-0-0--|
|------------------|----------------|
|
|   ~~~~~~~~~~~~~~~~~~~~~
| E H..              +W
|------------------|----------------|
|------------------|----------------|
|-9s5--------------|-(5)------------|
|------------------|----------------|
|------------------|----------------|
|------------------|----------------|

  W                        H       H
  |                        |       |
  o                        o       o

  Q        E  E  E Q  E    Q.   E  E  E Q
|-1--------1--1--1-1--1-|--1----1--1--1-1---||
|-3--------3--3--3-3--3-|--3----3--3--3-3--o||
|-3--------3--3--3-3--3-|--3----3--3--3-3---||
|-3--------3-(3)-3-3--3-|--3----3-(3)-3-3---||
|-1--------1-(1)-1-1--1-|--1----1-(1)-1-1--o||
|-----------------------|-------------------||
|
|      ~~~~~~~~~~~~~~~~~~~~~~~
| E   +H..                +W
|-----------------------|-------------------||
|-----------------------|------------------o||
|-5b7-(5)---------------|-(5)---------------||
|-----------------------|-------------------||
|-----------------------|------------------o||
|-----------------------|-------------------||

  W                       +W
  |                        |
  o                        /

  Q        E  E  E Q  E    Q.   E  E  E Q
|-1--------1--1--1-1--1-|--1----1--1--1-1--|
|-3--------3--3--3-3--3-|--3----3--3--3-3--|
|-3--------3--3--3-3--3-|--3----3--3--3-3--|
|-3--------3-(3)-3-3--3-|--3----3-(3)-3-3--|
|-1--------1-(1)-1-1--1-|--1----1-(1)-1-1--|
|-----------------------|------------------|
|
|      ~~~~~~~~~~~~~~~~~~~~~~~
| E   +H..                +W
|-----------------------|------------------|
|-----------------------|------------------|
|-5b7-(5)---------------|-(5)--------------|
|-----------------------|------------------|
|-----------------------|------------------|
|-----------------------|------------------|
|
| Gtr IV
| W                        W
|-----------------------|------------------|
|-----------------------|------------------|
|-----------------------|------------------|
|-----------------------|------------------|
|-----------------------|------------------|
|-----------------------|------------------|

   Q        Q     H        +H     Q  Q
   |        |     |         |     |  |
   o        o     o         /     x  x

   Q        E  E  E Q  E    H.       S S S S
|--1--------1--1--1-1--1-|-^1--------x-x-x-x---||
|--1--------1--1--1-1--1-|-^1--------x-x-x-x---||
|--0--------0--0--0-0--0-|-^0--------x-x-x-x---||
|--3--------3-(3)-3-3--3-|-^3------------------||
|--3--------3-(3)-3-3--3-|-^3------------------||
|------------------------|---------------------||
|
|       ~~~~~~~~~~~~~~~~~~~~~~~
|  E   +H..                +W
|------------------------|---------------------||
|------------------------|---------------------||
|--7b9-(7)---------------|-(7)-----------------||
|------------------------|---------------------||
|------------------------|---------------------||
|------------------------|---------------------||
|
|                           <
|  W                       +W
|------------------------|---------------------||
|------------------------|---------------------||
|------------------------|---------------------||
|------------------------|---------------------||
|-(0)--------------------|-(0)-----------------||
|-(0)--------------------|-(0)-----------------||

 Pre-Verse
  Gtr IV
                                                     PM| ~
  Q.   Q.   Q    +E  Q   E E E E E   Q.   Q.   Q     E E Q   E   E   E   E
|--------------|-------------------|---------------|-------------------------|
|--------------|-------------------|---------------|--------<5>-<5>-<5>-<5>\-|
|--------------|-----------5-5-5-5-|---------------|--------<5>-<5>-<5>-<5>\-|
|-0----3----5--|-(5)-6---6-5-5-5-5-|-0----3----0---|-------------------------|
|-0----3----5--|-(5)-6---6-3-3-3-3-|-0----3----0---|-0-0---------------------|
|-0----3----5--|-(5)-6---6---------|-0----3----0---|-0-0-7-------------------|
|
| Gtr V
|                                                    PM| ~
| Q.   Q.   Q    +E  Q.    E E E E   Q.   Q.   Q     E E Q   E   E   E   E
|--------------|-------------------|---------------|-------------------------|
|--------------|-------------------|---------------|--------<5>-<5>-<5>-<5>\-|
|--------------|-----------5-5-5-5-|---------------|--------<5>-<5>-<5>-<5>\-|
|-0----3----5--|-(5)-6-----5-5-5-5-|-0----3----0---|-------------------------|
|-0----3----5--|-(5)-6-----3-3-3-3-|-0----3----0---|-0-0---------------------|
|-0----3----5--|-(5)-6-------------|-0----3----0---|-0-0-3-------------------|

  Gtrs IV, V
                                                   PM------|
  Q.   Q.   Q    +E  Q  E E E E E   Q.   Q.   Q    S S E E E  E   E   E   E
|--------------|------------------|--------------|---------------------------||
|--------------|------------------|--------------|-----------<5>-<5>-<5>-<5>-||
|--------------|----------5-5-5-5-|--------------|-----------<5>-<5>-<5>-<5>-||
|-0----3----5--|-(5)-6--6-5-5-5-5-|-0----3----0--|---------------------------||
|-0----3----5--|-(5)-6--6-3-3-3-3-|-0----3----0--|-0-0-0-0-0-----------------||
|-0----3----5--|-(5)-6--6---------|-0----3----0--|-0-0-0-0-0-----------------||

   Verse
    Gtrs IV, V
      ~    ~    ~~~~~~~~     ~~~~~     ~    ~    ~   PM------------|
    E Q  E Q  E E   +E  E Q  Q  Q    E Q  E Q  E E   E E E E E E E E
||----------------|----------------|---------------|-------------------||
||o---------------|----------------|---------------|------------------o||
||----------------|----------------|---------------|-------------------||
||----------------|----------------|---------------|-------------------||
||o-5p3--5p3--5p3-|-(3)-5p3S=8--8--|-5p3--5p3--5p3-|-0-0-0-0-0-0-0-0--o||
||----------------|----------------|---------------|-0-0-0-0-0-0-0-0---||

 Pre-Chorus
  Gtrs IV, V
  Q.    Q  E E E    Q       Q  E E Q
|----------------|--------------------|
|----------------|--------------------|
|-3-----3--3-3-3-|--3-------3--3-3-3--|
|-3-----3--3-3-3-|--3-------3--3-3-3--|
|-1-----1--1-1-1-|--1-------1--1-1-1--|
|----------------|--------------------|
|
| Gtr VI
| Q.    Q  Q   E   +E   H..
|----------------|--------------------|
|----------------|--------------------|
|------10--7---5-|-(5)-10-------------|
|-------x--x---x-|------x-------------|
|-------8--5---3-|-(3)--8-------------|
|----------------|--------------------|

    Q.    Q  E E  E     Q       Q  E E E E
|-------------------|----------------------||
|-------------------|----------------------||
|---5-----5--5-5--5-|---5-------5--5-5-5-5-||
|---5-----5--5-5--5-|---5-------5--5-5-5-5-||
|---3-----3--3-3--3-|---3-------3--3-3-3-3-||
|-------------------|----------------------||
|
|  +Q.    Q  Q    E    +E   H..
|-------------------|----------------------||
|-------------------|----------------------||
|-(10)---10--7---10-|-(10)-14--------------||
|---------x--x----x-|-------x--------------||
|--(8)----8--5----8-|--(8)-12--------------||
|-------------------|----------------------||

   Chorus
    Gtrs IV, V
    Q   E E E  E  Q     Q     E  E  E  E Q
||-------------------|----------------------|
||o------------------|----------------------|
||--7---7-7-7--7--7--|--7-----7--7--7--7-7--|
||--7---7-7-7--7--7--|--7-----7--7--7--7-7--|
||o-5---5-5-5--5--5--|--5-----5--5--5--5-5--|
||-------------------|----------------------|
|
|   Gtr VI
|   E E E Q    E  Q     E  E  E  E  E  E Q
||-------------------|----------------------|
||o------------------|----------------------|
||--7-7-7-9---10-12--|-10-10-10-10-10-10-9--|
||--x-x-x-x----x--x--|--x--x--x--x--x--x-x--|
||o-5-5-5-7----8-10--|--8--8--8--8--8--8-7--|
||-------------------|----------------------|

  Q   E  E E  E  Q     Q     E E  E  E  Q
|-------------------|-------------------------|
|-------------------|-------------------------|
|-5---5--5-5--5--5--|--5-----5-5--5--5--5-----|
|-5---5--5-5--5--5--|--5-----5-5--5--5--5-----|
|-3---3--3-3--3--3--|--3-----3-3--3--3--3-----|
|-------------------|-------------------------|
|
| E E E  Q    E  Q     E  E  Q    E  E  E  E
|-------------------|-------------------------|
|-------------------|-------------------------|
|-9-9-9-10---12-14--|-12-12-12---12-12-12-12--|
|-x-x-x--x----x--x--|--x--x--x----x--x--x--x--|
|-7-7-7--8---10-12--|-10-10-10---10-10-10-10--|
|-------------------|-------------------------|

  Q   E E E E Q     Q   E  E  E  E  Q     Q   E E E  E Q     Q  E E  E E Q
|-----------------|--------------------|-------------------|-----------------||
|-----------------|--------------------|-------------------|----------------o||
|-----------------|--------------------|-------------------|-----------------||
|-7---7-7-7-7-7---|-7---7--7--7--7--7--|--8---8-8-8--8-8---|-8--8-8--8-8-8---||
|-7---7-7-7-7-7---|-7---7--7--7--7--7--|--8---8-8-8--8-8---|-8--8-8--8-8-8--o||
|-7---7-7-7-7-7---|-7---7--7--7--7--7--|--8---8-8-8--8-8---|-8--8-8--8-8-8---||
|
| Q   Q   E E E E   Q   E  E  E  E  Q     Q   Q   E  E E E   Q  Q    H
|-----------------|--------------------|-------------------|-----------------||
|-----------------|--------------------|-------------------|----------------o||
|-9--10---9-9-9-9-|-9--12-12-12-12-10--|-10--10---9-10-9-7-|-9--9---10-------||
|-x---x---x-x-x-x-|-x---x--x--x--x--x--|--x---x---x--x-x-x-|-x--x----x-------||
|-7---8---7-7-7-7-|-7--10-10-10-10--8--|--8---8---7--8-7-5-|-7--7----8------o||
|-----------------|--------------------|-------------------|-----------------||

 Post-Chorus
    Q.   Q  E E E     Q      Q  E E Q         Q.   Q  E E E   Q  Q  E E E E
|-----------------|-------------------------|---------------|---------------||
|-----------------|-------------------------|---------------|---------------||
|---3----3--3-3-3-|---3------3--3-3-3-------|-5----5--5-5-5-|-5--5--5-5-5-5-||
|---3----3--3-3-3-|---3------3--3-3-3-------|-5----5--5-5-5-|-5--5--5-5-5-5-||
|---1----1--1-1-1-|---1------1--1-1-1-------|-3----3--3-3-3-|-3--3--3-3-3-3-||
|-----------------|-------------------------|---------------|---------------||
|
|   W                +H..              +E     W               W
|-----------------|-------------------------|---------------|---------------||
|-/15-------------|-(15)b17r==========(15)\-|---------------|---------------||
|-----------------|-------------------------|---------------|---------------||
|-----------------|-------------------------|---------------|---------------||
|-----------------|-------------------------|---------------|---------------||
|-----------------|-------------------------|---------------|---------------||

 Interlude
  Gtr IV
  Q.     Q   E E E   Q   Q   E E Q     Q.     Q   E E E   Q   Q   E E E E
|------------------|-----------------|------------------|-----------------|
|------------------|-----------------|------------------|-----------------|
|-3------3---3-3-3-|-3---3---3-3-3---|-5------5---5-5-5-|-5---5---5-5-5-5-|
|-3------3---3-3-3-|-3---3---3-3-3---|-5------5---5-5-5-|-5---5---5-5-5-5-|
|-1------1---1-1-1-|-1---1---1-1-1---|-3------3---3-3-3-|-3---3---3-3-3-3-|
|------------------|-----------------|------------------|-----------------|
|
| Gtr V
| PM-|   PM  PM--------|   PM  PM---------|   PM  PM--------|       PM--|
| E  E E E E E E E   E E E E E E E E   E  E E E E E E E   E E E E E E E E
|------------------|-----------------|------------------|-----------------|
|------3---3-------|-----3---3-------|------5---5-------|-----5---5-------|
|----3---3-------3-|-------3-------3-|----5---5-------5-|---------------5-|
|------------3-----|---3-------3-----|------------5-----|---5---5---5-----|
|-1------------1---|-1-----------1---|-3------------3---|-3-----------3---|
|------------------|-----------------|------------------|-----------------|

  Q.     Q   E E E   Q.     Q   E E E   Q   Q   E E Q     Q   Q   Q   Q
|------------------|------------------|-----------------|-----------------|
|------------------|------------------|-----------------|-----------------|
|------------------|-5------5---5-5-5-|-7---7---7-7-7---|-5---5---5---5---|
|-3------3---3-3-3-|-5------5---5-5-5-|-7---7---7-7-7---|-5---5---5---5---|
|-3------3---3-3-3-|-3------3---3-3-3-|-5---5---5-5-5---|-3---3---3---3---|
|-3------3---3-3-3-|------------------|-----------------|-----------------|
|
| PM-|   PM  PM---------|   PM  PM--------|   PM  PM--------|   PM  PM--|
| E  E E E E E E E   E  E E E E E E E   E E E E E E E E   E E E E E E E E
|------------------|------------------|-----------------|-----------------|
|------------------|------5---5-------|-----6---6-------|-----5---5-------|
|------5---5-------|----5---5-------5-|---7---7-------7-|---5---5-------5-|
|--------3---3---3-|------------5-----|-----------7-----|-----------5-----|
|----3---------3---|-3------------3---|-5-----------5---|-3-----------3---|
|-3----------------|------------------|-----------------|-----------------|

  Q.     Q   E E E   Q   Q   E E Q     Q.     Q   E E E   Q   Q   E E E E
|------------------|-----------------|------------------|-----------------|
|------------------|-----------------|------------------|-----------------|
|-3------3---3-3-3-|-3---3---3-3-3---|-5------5---5-5-5-|-5---5---5-5-5-5-|
|-3------3---3-3-3-|-3---3---3-3-3---|-5------5---5-5-5-|-5---5---5-5-5-5-|
|-1------1---1-1-1-|-1---1---1-1-1---|-3------3---3-3-3-|-3---3---3-3-3-3-|
|------------------|-----------------|------------------|-----------------|
|
| PM-|   PM  PM--------|   PM  PM---------|   PM  PM--------|       PM--|
| E  E E E E E E E   E E E E E E E E   E  E E E E E E E   E E E E E E E E
|------------------|-----------------|------------------|-----------------|
|------3---3-------|-----3---3-------|------5---5-------|-----5---5-------|
|----3---3-------3-|-------3-------3-|----5---5-------5-|---------------5-|
|------------3-----|---3-------3-----|------------5-----|---5---5---5-----|
|-1------------1---|-1-----------1---|-3------------3---|-3-----------3---|
|------------------|-----------------|------------------|-----------------|

  Q.     Q   E E E   Q.     Q   E E E   Q   Q   E E Q     Q   Q   Q   Q
|------------------|------------------|-----------------|-----------------||
|------------------|------------------|-----------------|-----------------||
|------------------|-5------5---5-5-5-|-7---7---7-7-7---|-5---5---5---5---||
|-3------3---3-3-3-|-5------5---5-5-5-|-7---7---7-7-7---|-5---5---5---5---||
|-3------3---3-3-3-|-3------3---3-3-3-|-5---5---5-5-5---|-3---3---3---3---||
|-3------3---3-3-3-|------------------|-----------------|-----------------||
|
| PM-|   PM  PM---------|   PM  PM--------|   PM  PM--------|   PM  PM--|
| E  E E E E E E E   E  E E E E E E E   E E E E E E E E   E E E E E E E E
|------------------|------------------|-----------------|-----------------||
|------------------|------5---5-------|-----6---6-------|-----5---5-------||
|------5---5-------|----5---5-------5-|---7---7-------7-|---5---5-------5-||
|--------3---3---3-|------------5-----|-----------7-----|-----------5-----||
|----3---------3---|-3------------3---|-5-----------5---|-3-----------3---||
|-3----------------|------------------|-----------------|-----------------||

 Bridge/Pre-Solo
  Q.     Q   E E E   Q   Q   Q   Q     Q.     Q   E E E   Q   Q   Q   Q
|------------------|-----------------|------------------|-----------------|
|-3------3---3-3-3-|-3---3---3---3---|-5------5---5-5-5-|-5---5---5---5---|
|-3------3---3-3-3-|-3---3---3---3---|-5------5---5-5-5-|-5---5---5---5---|
|-3------3---3-3-3-|-3---3---3---3---|-5------5---5-5-5-|-5---5---5---5---|
|-1------1---1-1-1-|-1---1---1---1---|-3------3---3-3-3-|-3---3---3---3---|
|------------------|-----------------|------------------|-----------------|
|
| PM-|   PM  PM--------|   PM  PM---------|   PM  PM--------|       PM--|
| E  E E E E E E E   E E E E E E E E   E  E E E E E E E   E E E E E E E E
|------------------|-----------------|------------------|-----------------|
|------3---3-------|-----3---3-------|------5---5-------|-----5---5-------|
|----3---3-------3-|-------3-------3-|----5---5-------5-|---------------5-|
|------------3-----|---3-------3-----|------------5-----|---5---5---5-----|
|-1------------1---|-1-----------1---|-3------------3---|-3-----------3---|
|------------------|-----------------|------------------|-----------------|

  Gtr VI
  Q    Q   H         H       H
|------------------|-----------------|
|------------------|-----------------|
|-7----7---7-------|-9-------9-------|
|-x----x---x-------|-x-------x-------|
|-5----5---5-------|-7-------7-------|
|------------------|-----------------|
|
| Gtr IV
| Q.     Q   E E E   Q   Q   Q   Q
|------------------|-----------------|
|------------------|-----------------|
|------------------|-----------------|
|-0------0---0-0-0-|-2---2---2---2---|
|-0------0---0-0-0-|-3---3---3---3---|
|-0------0---0-0-0-|-2---2---2---2---|
|
| Gtr V
| PM-|   PM  PM--------|   PM  PM-----
| E  E E E E E E E   E E E E E E E E
|------------------|-----------------|
|------------------|-----------------|
|------2---2-------|-----5---5-------|
|------------0---0-|---------------2-|
|----0---0-----0---|---3---3---3-----|
|-0----------------|-2-----------2---|

   Q     Q    E  E  E  E    Q    Q    Q.    +E
|------------------------|-------------------------||
|------------------------|-------------------------||
|-10----10---10-10-10-10-|-12---12---12----(12)\---||
|--x-----x----x--x--x--x-|--x----x----x------------||
|--8-----8----8--8--8--8-|-10---10---10----(10)\---||
|------------------------|-------------------------||
|
|  Q.      Q     E  E  E    Q    Q    Q      Q
|------------------------|-------------------------||
|------------------------|-------------------------||
|------------------------|-------------------------||
|--3-------3-----3--3--3-|--5----5----5------5-----||
|--3-------3-----3--3--3-|--5----5----5------5-----||
|--3-------3-----3--3--3-|--5----5----5------5-----||
|
|-----|    PM    PM-----------|          PM------|
|  E  E  E E  E  E  E  E    E E  E E  E  E   E   E
|------------------------|-------------------------||
|------------------------|-------------------------||
|--------5----5----------|-------7----7------------||
|----------3-----3-------|---------5-----5---------||
|-----3----------------3-|----5------------------5-||
|--3----------------3----|--5----------------5-----||

 Guitar Solo
  Gtr VI
    ~~~~~                               ~~~~
    H..           +E       Q   Q   Q    Q
|----------------------|-------------------|
|----------------------|------17--18---17--|
|-/19------------(19)\-|-/19---------------|
|----------------------|-------------------|
|----------------------|-------------------|
|----------------------|-------------------|
|
| Gtr IV
|   Q.    Q  E E   E       Q   Q   E E  Q
|----------------------|-------------------|
|----------------------|-------------------|
|---3-----3--3-3---3---|---3---3---3-3--3--|
|---3-----3--3-3---3---|---3---3---3-3--3--|
|---1-----1--1-1---1---|---1---1---1-1--1--|
|----------------------|-------------------|

 ~~~~~~
   +H.          Q      Q   Q   Q        +E   +E
|-------------------|---------17b18====(17)-(17)-|
|-(17)--------------|-17--18---------------------|
|-------------/17---|----------------------------|
|-------------------|----------------------------|
|-------------------|----------------------------|
|-------------------|----------------------------|
|
|   Q.   Q  E   E E    Q   Q   E     E   E    E
|-------------------|----------------------------|
|-------------------|----------------------------|
|---5----5--5---5-5-|--5---5---5-----5---5----5--|
|---5----5--5---5-5-|--5---5---5-----5---5----5--|
|---3----3--3---3-3-|--3---3---3-----3---3----3--|
|-------------------|----------------------------|

                                                     ~~~~~
   +Q.    +Q    +E     Q      +Q        +Q.     +E   Q
|-(17)---(17)r=(17)\-/15---|-(15)b17===(15)r===(15)p13---|
|--------------------------|-----------------------------|
|--------------------------|-----------------------------|
|--------------------------|-----------------------------|
|--------------------------|-----------------------------|
|--------------------------|-----------------------------|
|
|   Q.     Q     E     E E     Q.           Q    E   E E
|--------------------------|-----------------------------|
|--------------------------|-----------------------------|
|--------------------------|---5------------5----5---5-5-|
|---3------3-----3-----3-3-|---5------------5----5---5-5-|
|---3------3-----3-----3-3-|---3------------3----3---3-3-|
|---3------3-----3-----3-3-|-----------------------------|

 ~~~~~~                   ~~~~
   +H.          Q        +H.          Q
|-(13)---------12b13r=|=(12)-------------|
|---------------------|-------------/13--|
|---------------------|------------------|
|---------------------|------------------|
|---------------------|------------------|
|---------------------|------------------|
|
|   Q   Q  E E  Q         Q   Q  Q    Q
|---------------------|------------------|
|---------------------|------------------|
|---7---7--7-7--7-----|---5---5--5----5--|
|---7---7--7-7--7-----|---5---5--5----5--|
|---5---5--5-5--5-----|---3---3--3----3--|
|---------------------|------------------|

                                   ~~~~
   W                  Q   Q   Q    Q
|------------------|------------------|
|-15b17r===========|=15--17--18---17--|
|------------------|------------------|
|------------------|------------------|
|------------------|------------------|
|------------------|------------------|
|
|  Q.     Q  E E E    Q   Q   E E  Q
|------------------|------------------|
|------------------|------------------|
|--3------3--3-3-3-|--3---3---3-3--3--|
|--3------3--3-3-3-|--3---3---3-3--3--|
|--1------1--1-1-1-|--1---1---1-1--1--|
|------------------|------------------|

 ~~~~~~
   +H.          Q      Q   Q   H
|-------------------|---------------------|
|-(17)--------------|---------------------|
|-------------------|-17--15--14b15r======|
|-------------/17---|---------------------|
|-------------------|---------------------|
|-------------------|---------------------|
|
|   Q.   Q  E   E E    Q   Q   E    E E E
|-------------------|---------------------|
|-------------------|---------------------|
|---5----5--5---5-5-|--5---5---5----5-5-5-|
|---5----5--5---5-5-|--5---5---5----5-5-5-|
|---3----3--3---3-3-|--3---3---3----3-3-3-|
|-------------------|---------------------|

    ~~~~             ~~~~~~~~~~~     PM
   +Q     Q     Q    Q      +Q    E  E  Q       +E     E
|-------[15]-------------|-------------------------------|
|------------------------|-------17----17b18r==(17)\-----|
|-(14)---------14--------|---------------------------/17-|
|-------------------17---|-(17)-----17-------------------|
|------------------------|-------------------------------|
|------------------------|-------------------------------|
|
|   Q.       Q    E  E E     Q.      Q       E   E     E
|------------------------|-------------------------------|
|------------------------|-------------------------------|
|------------------------|---5-------5-------5---5-----5-|
|---3--------3----3--3-3-|---5-------5-------5---5-----5-|
|---3--------3----3--3-3-|---3-------3-------3---3-----3-|
|---3--------3----3--3-3-|-------------------------------|

                   PM    PM             ~~~~
   H         +E    E  E  E    Q.       +Q.     Q
|--------------------17----|-17b18r===(17)----15b17r==|
|-17b18-----(17)\----------|--------------------------|
|-----------------17----17-|--------------------------|
|--------------------------|--------------------------|
|--------------------------|--------------------------|
|--------------------------|--------------------------|
|
|  Q     Q    E    E  Q       Q     Q      Q   Q
|--------------------------|--------------------------|
|--------------------------|--------------------------|
|--7-----7----7----7--7----|--5-----5------5---5------|
|--7-----7----7----7--7----|--5-----5------5---5------|
|--5-----5----5----5--5----|--3-----3------3---3------|
|--------------------------|--------------------------|

                ~~~~
   +Q          +H      Q     +H.       Q
|-(15)b17r====(15)--------|---------------|
|---------------------15--|-(15)------15--|
|-------------------------|---------------|
|-------------------------|---------------|
|-------------------------|---------------|
|-------------------------|---------------|
|
|   E     H..                +W
|-------------------------|---------------|
|---5-----3---------------|--(3)----------|
|---5-----3---------------|--(3)----------|
|---5-----3---------------|--(3)----------|
|---3-----1---------------|--(1)----------|
|-------------------------|---------------|

                            ~~~~
   +W                      +W
|-----------------------|--------------------||
|-(15)b17---------------|-(15)---------------||
|-----------------------|--------------------||
|-----------------------|--------------------||
|-----------------------|--------------------||
|-----------------------|--------------------||
|
|   PM-----------------------------|
|   E     E E E E E E E     E  E E E E E E E
|-----------------------|--------------------||
|-----------------------|--------------------||
|-----------------------|------------5-5-5-5-||
|---------------5-5-5-5-|---5--5-5-5-5-5-5-5-||
|---3-----3-3-3-3-3-3-3-|---3--3-3-3-3-3-3-3-||
|-----------------------|--------------------||

   Chorus
    Gtrs IV, V
    Q   E E E  E  Q     Q     E  E  E  E Q
||-------------------|----------------------|
||o------------------|----------------------|
||--7---7-7-7--7--7--|--7-----7--7--7--7-7--|
||--7---7-7-7--7--7--|--7-----7--7--7--7-7--|
||o-5---5-5-5--5--5--|--5-----5--5--5--5-5--|
||-------------------|----------------------|
|
|   Gtr VI
|   E E E Q    E  Q     E  E  E  E  E  E Q
||-------------------|----------------------|
||o------------------|----------------------|
||--7-7-7-9---10-12--|-10-10-10-10-10-10-9--|
||--x-x-x-x----x--x--|--x--x--x--x--x--x-x--|
||o-5-5-5-7----8-10--|--8--8--8--8--8--8-7--|
||-------------------|----------------------|

  Q   E  E E  E  Q     Q     E E  E  E  Q
|-------------------|-------------------------|
|-------------------|-------------------------|
|-5---5--5-5--5--5--|--5-----5-5--5--5--5-----|
|-5---5--5-5--5--5--|--5-----5-5--5--5--5-----|
|-3---3--3-3--3--3--|--3-----3-3--3--3--3-----|
|-------------------|-------------------------|
|
| E E E  Q    E  Q     E  E  Q    E  E  E  E
|-------------------|-------------------------|
|-------------------|-------------------------|
|-9-9-9-10---12-14--|-12-12-12---12-12-12-12--|
|-x-x-x--x----x--x--|--x--x--x----x--x--x--x--|
|-7-7-7--8---10-12--|-10-10-10---10-10-10-10--|
|-------------------|-------------------------|

  Q   E E E E Q     Q   E  E  E  E  Q     Q   E E E  E Q     Q  E E  E E Q
|-----------------|--------------------|-------------------|-----------------||
|-----------------|--------------------|-------------------|----------------o||
|-----------------|--------------------|-------------------|-----------------||
|-7---7-7-7-7-7---|-7---7--7--7--7--7--|--8---8-8-8--8-8---|-8--8-8--8-8-8---||
|-7---7-7-7-7-7---|-7---7--7--7--7--7--|--8---8-8-8--8-8---|-8--8-8--8-8-8--o||
|-7---7-7-7-7-7---|-7---7--7--7--7--7--|--8---8-8-8--8-8---|-8--8-8--8-8-8---||
|
| Q   Q   E E E E   Q   E  E  E  E  Q     Q   Q   E  E E E   Q  Q    H
|-----------------|--------------------|-------------------|-----------------||
|-----------------|--------------------|-------------------|----------------o||
|-9--10---9-9-9-9-|-9--12-12-12-12-10--|-10--10---9-10-9-7-|-9--9---10-------||
|-x---x---x-x-x-x-|-x---x--x--x--x--x--|--x---x---x--x-x-x-|-x--x----x-------||
|-7---8---7-7-7-7-|-7--10-10-10-10--8--|--8---8---7--8-7-5-|-7--7----8------o||
|-----------------|--------------------|-------------------|-----------------||

 Outro
  Gtr III
   W               +W                W               +W
   |                |                |                |
   o                /                o                /

  Gtrs IV, V
   Q.   Q  E E E    Q   Q  E E Q     Q.   Q  E E E    Q   Q  E E E E
|----------------|----------------|----------------|-----------------|
|----------------|----------------|----------------|-----------------|
|--3----3--3-3-3-|--3---3--3-3-3--|--5----5--5-5-5-|--5---5--5-5-5-5-|
|--3----3--3-3-3-|--3---3--3-3-3--|--5----5--5-5-5-|--5---5--5-5-5-5-|
|--1----1--1-1-1-|--1---1--1-1-1--|--3----3--3-3-3-|--3---3--3-3-3-3-|
|----------------|----------------|----------------|-----------------|
|
| Gtr VI
|  W                W                W                W
|----------------|----------------|----------------|-----------------|
|----------------|----------------|----------------|-----------------|
|----------------|----------------|----------------|-----------------|
|----------------|----------------|----------------|-----------------|
|----------------|----------------|----------------|-----------------|
|----------------|----------------|----------------|-----------------|
|
| Gtr I
|  W               +W                W               +W
|-^1-------------|-(1)------------|-^3-------------|-(3)-------------|
|-^3-------------|-(3)------------|-^5-------------|-(5)-------------|
|-^3-------------|-(3)------------|-^5-------------|-(5)-------------|
|-^3-------------|-(3)------------|-^5-------------|-(5)-------------|
|-^1-------------|-(1)------------|-^3-------------|-(3)-------------|
|----------------|----------------|----------------|-----------------|

   W               +W                W                 Q   Q  E   Q.
   |                |                |                 |   |  |   |
   o                /                o                 o   o  o   o

   Q.   Q  E E E    Q   Q  E E Q     Q.   Q  E E E     Q   Q  E E E  E
|----------------|----------------|----------------|-------------------|
|----------------|----------------|----------------|-------------------|
|--3----3--3-3-3-|--3---3--3-3-3--|--5----5--5-5-5-|---5---5--5-5-5--5-|
|--3----3--3-3-3-|--3---3--3-3-3--|--5----5--5-5-5-|---5---5--5-5-5--5-|
|--1----1--1-1-1-|--1---1--1-1-1--|--3----3--3-3-3-|---3---3--3-3-3--3-|
|----------------|----------------|----------------|-------------------|
|
|  <                                 <
|  W               +W                W                +W
|----------------|----------------|----------------|-------------------|
|----------------|----------------|----------------|-------------------|
|--3-------------|-(3)------------|-10-------------|-(10)--------------|
|--x-------------|-(x)------------|--x-------------|--(x)--------------|
|--1-------------|-(1)------------|--8-------------|--(8)--------------|
|----------------|----------------|----------------|-------------------|
|
|  W               +W                W                +W
|-^1-------------|-(1)------------|-^3-------------|--(3)--------------|
|-^3-------------|-(3)------------|-^5-------------|--(5)--------------|
|-^3-------------|-(3)------------|-^5-------------|--(5)--------------|
|-^3-------------|-(3)------------|-^5-------------|--(5)--------------|
|-^1-------------|-(1)------------|-^3-------------|--(3)--------------|
|----------------|----------------|----------------|-------------------|

   W          +W          +W           +W
   |           |           |            |
   o           /           /            /

   W          +W          +W           +W
|-----------|-----------|------------|--------*|
|-----------|-----------|------------|--------*|
|-----------|-----------|------------|--------*|
|--0--------|-(0)-------|-(0)--------|-(0)----*|
|--0--------|-(0)-------|-(0)--------|-(0)----*|
|--0--------|-(0)-------|-(0)--------|-(0)----*|
|
|                                       ~~~
|  W          +W          +W           +W
|-----------|-----------|------------|--------*|
|-----------|-----------|------------|--------*|
|--7--------|-(7)-------|-(7)--------|-(7)----*|
|--x--------|-(x)-------|-(x)--------|-(x)----*|
|--5--------|-(5)-------|-(5)--------|-(5)----*|
|-----------|-----------|------------|--------*|
|
|  W          +W          +W           +W
|-^1--------|-(1)-------|-(1)--------|-(1)----*|
|-^3--------|-(3)-------|-(3)--------|-(3)----*|
|-^2--------|-(2)-------|-(2)--------|-(2)----*|
|-^0--------|-(0)-------|-(0)--------|-(0)----*|
|-----------|-----------|------------|--------*|
|-----------|-----------|------------|--------*|
468 ad

Leave a Reply

Your email address will not be published. Required fields are marked *

You may use these HTML tags and attributes: <a href="" title=""> <abbr title=""> <acronym title=""> <b> <blockquote cite=""> <cite> <code> <del datetime=""> <em> <i> <q cite=""> <strike> <strong>