Informasi terbaru terlengkap terbaik

YOUTH AND LIFESTYLE

Random Post
Cara mempercepat booting windows 7

Cara mempercepat booting windows 7

Cara mempercepat booting windows 7 Komputer adalah nyawa hidup era globalisasi. Dengan komputer kita bisa melakukan banyak hal dalam memperlancar urusan kehidupan kita. Windows 7 […]

Selengkapnya »

Tablature dan melodi gitar Lost Avenged Sevenfold

Tablature dan melodi gitar Lost Avenged Sevenfold

D5
x 5 7 7 x x

C5
x 3 5 5 x x

Bb5
x 1 3 3 x x

D5(type 2)
x 5 7 x x x

C5(type 2)
x 3 5 x x x

Bb5(type 2)
x 1 3 x x x

Gtr I (D A D G B E) - 'Rhythm I'
Gtr II (D A D G B E) - 'Rhythm II'
Gtr III (D A D G B E) - 'Lead I'
Gtr IV (D A D G B E) - 'Lead II'
Gtr V (D A D G B E) - 'Lead III'
Gtr VI (D A D G B E) - 'Lead IV'

 Intro
  Q=92
 4/4
  Gtr III
    ~~~    ~                         ~~~~~~~~~~~~~~~~~~~~~~~~~~~
    E S  S E  E E  E    E  E     a   W
|-----------------------------|--------------------------------|
|-----------------------------|--------------------------------|
|-----9h10p9----9h10\-/14-14\-|-14s=19-------------------------|
|-/12--------12---------------|--------------------------------|
|-----------------------------|--------------------------------|
|-----------------------------|--------------------------------|
|
| Gtr IV
|                                    ~~~    ~
|   W                                E S  S E  E E  E    E  E
|-----------------------------|--------------------------------|
|-----------------------------|--------------------------------|
|-----------------------------|--------9h10p9----9h10\-/14-14\-|
|-----------------------------|----/12--------12---------------|
|-----------------------------|--------------------------------|
|-----------------------------|--------------------------------|

 ~~~~~~~~     ~                         ~~~
       E S  S E  E E  E    E  E     a   W
|--------------------------------|--------------------------------|
|--------------------------------|--------------------------------|
|--------9h10p9----9h10\-/14-14\-|-14s=19-------------------------|
|----/12--------12---------------|--------------------------------|
|--------------------------------|--------------------------------|
|--------------------------------|--------------------------------|
|
|      ~~~~~~~~~~~~~~~~~~~~~~~~~~~~~~~~~~~     ~
|  a   W                                E S  S E  E E  E    E  E
|--------------------------------|--------------------------------|
|--------------------------------|--------------------------------|
|-14s=19-------------------------|--------9h10p9----9h10\-/14-14\-|
|--------------------------------|----/12--------12---------------|
|--------------------------------|--------------------------------|
|--------------------------------|--------------------------------|

  Gtr II
    W                                   E S  S E  E E  E    E  E
    |                                   | |  | |  | |  |    |  |
    o                                   o o  o o  o o  o    o  o

  Gtr V
    ~~~      ~~                         ~~~~~~~~~~~~~~~~~~~~~~~~~~~
    E  S  S  E  E  E  E    E  E     a   W
|--------------------------------|--------------------------------|
|--------------------------------|--------------------------------|
|------9h10p=9-----9h10\-/14-14\-|-14s=19-------------------------|
|-/12----------12----------------|--------------------------------|
|--------------------------------|--------------------------------|
|--------------------------------|--------------------------------|
|
| Gtr IV
|   ~~~~~~~~~~~~~~~~~~~~~~~~~~~~~~~~~~~~~~     ~
|   W                                   E S  S E  E E  E    E  E
|--------------------------------|--------------------------------|
|--------------------------------|--------------------------------|
|-/19----------------------------|--------9h10p9----9h10\-/14-14\-|
|--------------------------------|----/12--------12---------------|
|--------------------------------|--------------------------------|
|--------------------------------|--------------------------------|
|
| Gtr I
|                                       ~~~
|   E  S  S  E  E  E  E    E  E     a   W
|--------------------------------|--------------------------------|
|--------------------------------|--------------------------------|
|-----12h14p12----12h14\-/19-19\-|-19s=22-------------------------|
|-/15----------15----------------|--------------------------------|
|--------------------------------|--------------------------------|
|--------------------------------|--------------------------------|

       W                                   E  S  S E  E E  E    E  E
       |                                   |  |  | |  | |  |    |  |
       o                                   o  o  o o  o o  o    o  o

 ~~~~~~~~       ~~                         ~~~~
       E  S  S  E  E  E  E    E  E     a   W
|-----------------------------------|-----------------------------------|
|-----------------------------------|-----------------------------------|
|---------9h10p=9-----9h10\-/14-14\-|-14s=19----------------------------|
|----/12----------12----------------|-----------------------------------|
|-----------------------------------|-----------------------------------|
|-----------------------------------|-----------------------------------|
|
|      ~~~~~~~~~~~~~~~~~~~~~~~~~~~~~~~~~~~~~~~     ~
|  a   W                                   E  S  S E  E E  E    E  E
|-----------------------------------|-----------------------------------|
|-----------------------------------|-----------------------------------|
|-14s=19----------------------------|---------9h10p9----9h10\-/14-14\---|
|-----------------------------------|----/12---------12-----------------|
|-----------------------------------|-----------------------------------|
|-----------------------------------|-----------------------------------|
|
|                                          ~~~~
|      E  S  S  E  E  E  E    E  E     a   H.                   E  E
|-----------------------------------|-----------------------------------|
|-----------------------------------|--------------------------18p17\---|
|--------12h14p12----12h14\-/19-19\-|-19s=22----------------------------|
|----/15----------15----------------|-----------------------------------|
|-----------------------------------|-----------------------------------|
|-----------------------------------|-----------------------------------|

    H                  H                  E  E   E  S  S  E  S  S  E   E
    |                  |                  |  |   |  |  |  |  |  |  |   |
    o                  o                  o  o   o  o  o  o  o  o  o   o

  Gtr III
                                             ~~~
    E     E  E  S  S   E   S  S  E  E     E  H.                       +E
|-/10---------------------------------|------------------------------------|
|--------11----11---------------------|------------------------------------|
|-----------12----12------12----------|------------------------------------|
|---------------------12-----12-------|--10h12-----------------------(12)\-|
|-------------------------------13p10-|------------------------------------|
|-------------------------------------|------------------------------------|
|
| Gtr I
|                                            ~~~
|   E     E  E  S  S   E   S  S  E  E     E  H.                       +E
|-------------------------------------|------------------------------------|
|-/11---------------------------------|------------------------------------|
|--------12----12---------------------|------------------------------------|
|-----------12----12------12----------|------------------------------------|
|---------------------13-----13p10----|--12p10-----------------------(10)\-|
|----------------------------------13-|------------------------------------|
|
| Gtr IV
|                      ~~~~
|   H                 +H                  E  E   E  S  S  E  S  S  E   E
|--15b17-------------(15)-------------|-/10--------------------------------|
|-------------------------------------|-----11-----11----------------------|
|-------------------------------------|---------12----12----12-------------|
|-------------------------------------|------------------12----12----------|
|-------------------------------------|---------------------------13p=10---|
|-------------------------------------|------------------------------------|

    W                                E  E   E  S  S  E  S  S  E   E
    |                                |  |   |  |  |  |  |  |  |   |
    o                                o  o   o  o  o  o  o  o  o   o

                                        ~~~
    E  E  E  S  S  E  S  S  E  E     E  H.                       +E
|-/10----------------------------|-------------------------------------||
|-----11----11-------------------|-------------------------------------||
|--------12----12----12----------|-------------------------------------||
|-----------------12----12-------|------8------------------------(8)\--||
|--------------------------13p10-|---8---------------------------------||
|--------------------------------|-------------------------------------||
|
|                                       ~~~
|   E  E  E  S  S  E  S  S  E  E     E  H.                       +E
|--------------------------------|-------------------------------------||
|-/11----------------------------|-------------------------------------||
|-----12----12-------------------|-------------------------------------||
|--------12----12----12----------|-----12-----------------------(12)\--||
|-----------------13----13p10----|--12---------------------------------||
|-----------------------------13-|-------------------------------------||
|
|   ~~~
|   W                                E  E   E  S  S  E  S  S  E   E
|--------------------------------|-/10---------------------------------||
|--------------------------------|-----11-----11-----------------------||
|--------------------------------|---------12----12----12--------------||
|--------------------------------|------------------12----12-----------||
|--12----------------------------|---------------------------13p=10----||
|--------------------------------|-------------------------------------||

 Pre-Verse
  D5(type 2)                  C5(type 2)    Bb5(type 2)         C5(type)
  Gtrs I, II
   S  S S  S S S  S S S S  S S  S  S  S S     S S S  S S S  S S S S  S S  E  E
   |  | |  | | |  | | | |  | |  |  |  | |     | | |  | | |  | | | |  | |  |  |
   /  / /  / / /  / / / /  / /  /  /  / /     / / /  / / /  / / / /  / /  /  /

  Gtr III
   ~~~       ~~                               ~~~~~~~~~~~~~~~~~~~~~~~~~~~~~~~~~~
   E    S  S E    E   E    E    E     E       W
|-----------------------------------------|------------------------------------|
|-------8h10p8--------8h==10---15----15---|--18--------------------------------|
|-10----9h10p9---10---9h==10---14----14---|--19--------------------------------|
|-12-------------12-----------------------|------------------------------------|
|-----------------------------------------|------------------------------------|
|-----------------------------------------|------------------------------------|
|  E    S  S E    E   E    E    E     E       W
|   ^^^^^^^^^^^LOWER AND HIGHER MELODIES. Harmony is overtop.
| Gtr IV
|  ~~~                                        ~~       ~~
|  H.                           Q             E   S  S E    E   E    E    E  E
|-----------------------------------------|------------------------------17-15-|
|-----------------------------------------|-------8h10p8--------8h==10---18-17-|
|-----------------------------------------|--10---9h10p9---10---9h==10---------|
|-----------------------------------------|--12------------12------------------|
|-/8----------------------------7\--------|------------------------------------|
|-----------------------------------------|------------------------------------|
                                              E   S  S E    E   E    E    E  E

  D5(type 2)                 C5(type 2)  Bb5(type 2)            C5(type 2)
   S S S  S S S  S S S S  S S  S S  S S    S S S  S S S  S S S S  S S  E  E
   | | |  | | |  | | | |  | |  | |  | |    | | |  | | |  | | | |  | |  |  |
   / / /  / / /  / / / /  / /  / /  / /    / / /  / / /  / / / /  / /  /  /

 ~~~~       ~~                             ~~
   E   S  S E    E   E    E    E    E      W
|---------------------------------------|-----------------------------------|
|------8h10p8--------8h==10---15---15---|-18--------------------------------|
|-10---9h10p9---10---9h==10---14---14---|-19--------------------------------|
|-12------------12----------------------|-----------------------------------|
|---------------------------------------|-----------------------------------|
|---------------------------------------|-----------------------------------|
|  E   S  S E    E   E    E    E    E      W
|
|  ~~~~~~~~~~~~~~~~~~~~~~~~~~~~~~~~~~~~~~~~~~       ~~
|  W                                       E   S  S E    E   E    E    E  E
|-13------------------------------------|-----------------------------13-15-|
|-15------------------------------------|------8h10p8--------8h==10---15-17-|
|---------------------------------------|-10---9h10p9---10---9h==10---------|
|---------------------------------------|-12------------12------------------|
|---------------------------------------|-----------------------------------|
|---------------------------------------|-----------------------------------|
   W                                       E   S  S E    E   E    E    E  E

  D5(type 2)                           C5(type Bb5(type 2)     C5(type 2)D5(type
  Gtrs I, II
   S    S  S S  S S  S  S   S  S  S  S  E  E    S    S  S  S  S S  S  S   S  S  S  S  E  E
   |    |  | |  | |  |  |   |  |  |  |  |  |    |    |  |  |  | |  |  |   |  |  |  |  |  |
   /    /  / /  / /  /  /   /  /  /  /  /  /    /    /  /  /  / /  /  /   /  /  /  /  /  /

  Gtr III
                                                        ~~~
   E       E    E    S  S   E     S  S  E  E    E       H.                              +E
|-10-----------------------------------------|-----------------------------------------------|
|-11------11--------11-----------------------|-----------------------------------------------|
|---------12---12---12-12--------12----------|-----------------------------------------------|
|--------------12------12--12----12-12-------|----------8-------------------------------(8)\-|
|--------------------------13-------13-13p10-|--8--------------------------------------------|
|--------------------------------------17-13-|-----------------------------------------------|
|  E       E    E    S  S   E     S  S  E  E
|
| Gtr IV
|                           ~~~~
|  H                       +H                   E       E     E    S  S   E     S  S  E  E
|--------------------------------------------|-10--------------------------------------------|
|-10b11-------------------(10)---------------|-11------11---------11-------------------------|
|--------------------------------------------|---------12----12---12-12--------12------------|
|--------------------------------------------|---------------12------12--12----12-12---------|
|--------------------------------------------|---------------------------13-------13-13p10---|
|--------------------------------------------|---------------------------------------17-13---|
|                                               E       E     E    S  S   E     S  S  E  E
|
| Gtr V
|                           ~~~~                                          ~~~~
|  H                       +H                   H                        +H
|-15b17-------------------(15)---------------|-----------------------------------------------|
|--------------------------------------------|-15b17--------------------(15)-----------------|
|--------------------------------------------|-----------------------------------------------|
|--------------------------------------------|-----------------------------------------------|
|--------------------------------------------|-----------------------------------------------|
|--------------------------------------------|-----------------------------------------------|

          2)                           C5(type 2) Bb5(type 2)         C5(type 2)
   S    S  S S  S S  S  S   S  S  S  S  E   E      S    S  S  S  S S  S  S   S
   |    |  | |  | |  |  |   |  |  |  |  |   |      |    |  |  |  | |  |  |   |
   /    /  / /  / /  /  /   /  /  /  /  /   /      /    /  /  /  / / /  /  /  /
                      ~~~
   E       E    E    S  S   E     S  S  E   E      E       H.                            
   +E
|-10--------------------------------------------|----------------------------------|
|-11------11--------11--------------------------|----------------------------------|
|---------12---12---12-12--------12-------------|----------------------------------|
|--------------12------12--12----12-12----------|----------8-----------------------|
|--------------------------13-------13-13p=10---|--8-------------------------------|
|--------------------------------------17--13---|----------------------------------|

---------------||
---------------||
---------------||
----------(8)\-||
---------------||
---------------||

|  E       E    E    S  S   E     S  S  E   E
|
|  ~~~~~
|  H..                                     +E      E       E     E    S  S   E       S  
 E  E
|-----------------------------------------------|-10-------------------------------|
|-----------------------------------------------|-11------11---------11------------|
|-----------------------------------------------|---------12----12---12-12---------|
|-----------------------------------------------|---------------12------12--12-----|
|-12--------------------------------------(12)\-|---------------------------13-----|
|-----------------------------------------------|----------------------------------|

---------------||
---------------||
-12------------||
-12-12---------||
----13-13p10\--||
-------17-13\--||

|                  E       E     E    S  S   E   S  S  E  E
|
|                                                                            \1.5
|                           ~~~~
|  H                       +H                      H                        +H
|-18b20-------------------(18)------------------|----------------------------------|
|-----------------------------------------------|-17b18--------------------(17)----|
|-----------------------------------------------|----------------------------------|
|-----------------------------------------------|----------------------------------|
|-----------------------------------------------|----------------------------------|
|-----------------------------------------------|----------------------------------|

---------------||
---------------||
---------------||
---------------||
---------------||
---------------||

 Post-Verse
  Gtr II
  PM----------|     PM------|   PM--------|   PM--|   PM  PM---
  T   T T T T T S T T T T T T S T T T T T T S T T T T T T T T
|-------------------------------------------------------------|
|-------------------------------------------------------------|
|-------------------------------------------------------------|
|-7---7-7-7-7-7-8-7-5-5-5-5-5-7-------------5-------5---5-----|
|-------------------------------8-8-8-8-8-8---7-7-7---7---7-7-|
|-------------------------------------------------------------|
|
| Gtr I
|                                                     PM-------
| H..                                                 S   S
|-------------------------------------------------------------|
|-------------------------------------------------------------|
|-------------------------------------------------------------|
|-------------------------------------------------------------|
|-----------------------------------------------------0---0---|
|-----------------------------------------------------0---0---|

 ------------|     PM------|   PM--------|   PM|   PM  PM--|
  T T T T T  T S T T T T T T S T T T T T T S T T T T T T T T
|------------------------------------------------------------||
|------------------------------------------------------------||
|------------------------------------------------------------||
|-7-7-7-7-7--7-8-7-5-5-5-5-5-7-------------5-----5---5-------||
|------------------------------8-8-8-8-8-8---7-7---7---7-5-7-||
|------------------------------------------------------------||
|
|--------------------------------------------------------|
| e       H.                                         S   S
|------------------------------------------------------------||
|------------------------------------------------------------||
|------------------------------------------------------------||
|------------------------------------------------------------||
|-0--------------------------------------------------0---0---||
|-0--------------------------------------------------0---0---||

   Verse
    Gtrs I, II
    S S S S S S  S S  S S S S  S S S S    S S S S  S S S S  S S S S  S S  S S
||-------------------------------------|---------------------------------------|
||o------------------------------------|---------------------------------------|
||-------------------------------------|--3-3-3-3--3-3-3-3---------------------|
||--0-0-0-0-0-0--0-0--5-5-5-5--8-8-8-8-|--3-3-3-3--3-3-3-3--3-3-3-3--3-3--3-3--|
||o-0-0-0-0-0-0--0-0--5-5-5-5--5-5-5-5-|--1-1-1-1--1-1-1-1--3-3-3-3--3-3--3-3--|
||--0-0-0-0-0-0--0-0--5-5-5-5--5-5-5-5-|--------------------3-3-3-3--3-3--3-3--|
|
|   Gtr V
|   Q       E    E    Q        Q          Q        Q        Q        E    E
||-------------------------------------|---------------------------------------|
||o------------------------------------|---------------------------------------|
||--7-------9---10---15-------15-------|-15-------17-------10-------12---14----|
||--x-------x----x----x--------x-------|--x--------x--------x--------x----x----|
||o-5-------7----8---13-------13-------|-13-------15--------8-------10---12----|
||-------------------------------------|---------------------------------------|

   S S S S  S S  S S  S S S S  S S  S S    E E  E  E  S S S S  S S  S S
|---------------------------------------|--------------------------------||
|---------------------------------------|-------------------------------o||
|---------------------7-7-7-7--7-7--7-7-|--------------------------------||
|--7-7-7-7--7-7--7-7--8-8-8-8--8-8--8-8-|--2-2--2--2--3-3-3-3--3-3--3-3--||
|--5-5-5-5--5-5--5-5--5-5-5-5--5-5--5-5-|--3-3--3--3--3-3-3-3--3-3--3-3-o||
|--4-4-4-4--4-4--4-4--------------------|--2-2--2--2--3-3-3-3--3-3--3-3--||
|
|  Q        E    E    Q        E    E      Q    E  E  Q        E    E
|---------------------------------------|--------------------------------||
|---------------------------------------|-------------------------------o||
|-14-------14---14---15-------14---15---|-12---12-12-14-------12---14----||
|--x--------x----x----x--------x----x---|--x----x--x--x--------x----x----||
|-12-------12---12---13-------12---13---|-10---10-10-12-------10---12---o||
|---------------------------------------|--------------------------------||

 Pre-Chorus
   S S  S S S E    S  S S S S S E S    S S  S S  S E    S S S  E  E E
|-----------------------------------|---------------------------------|
|-----------------------------------|---------------------------------|
|--3-3--3-3-3-3----3----------------|---------------------------------|
|--3-3--3-3-3-3----3--1-1-1-1-1-1-1-|--2-2--2-2--2-2----2-3-3--3--3-3-|
|--1-1--1-1-1-1----1--1-1-1-1-1-1-1-|--3-3--3-3--3-3----3-3-3--3--3-3-|
|---------------------1-1-1-1-1-1-1-|--2-2--2-2--2-2----2-3-3--3--3-3-|
|
|  E    E   E    E    H                E    E    E    Q        Q.
|-----------------------------------|---------------------------------|
|-----------------------------------|---------------------------------|
|-10---10---9---10---12-------------|-12---12---10S==15-------14------|
|--x----x---x----x----x-------------|--x----x----x----x--------x------|
|--8----8---7----8---10-------------|-10---10----8S==13-------12------|
|-----------------------------------|---------------------------------|

  Gtrs I, II
  PM--------|     PM------|   PM----------------|       ~
  T T T T T T S T T T T T T S T T T T T T S T T T T T T S
|----------------------------------------------------------||
|----------------------------------------------------------||
|----------------------------------------------------------||
|-7-7-7-7-7-7-8-7-5-5-5-5-5-7---------------------5-5-8-8--||
|-----------------------------8-8-8-8-8-8-5-5-7-7----------||
|----------------------------------------------------------||

   Chorus
    Gtr IV
     S  S  S  S  S  S  S  S  S  S  S  S  S  S  S  S
||--------------------------------------------------|
||o-11p10-------11p10-13p10-11p10-------11p10-13p10-|
||--------10----------------------10----------------|
||-----------10----------------------10-------------|
||o-------------------------------------------------|
||--------------------------------------------------|
|
|   Gtrs I, II
|    S  S  S  S  S  S  E     S  S  S  S  S  S  E
||--------------------------------------------------|
||o-------------------------------------------------|
||--------------------------------------------------|
||---3--3--3--3--3--3--3-----3--3--3--3--3--3--3----|
||o--3--3--3--3--3--3--3-----3--3--3--3--3--3--3----|
||---3--3--3--3--3--3--3-----3--3--3--3--3--3--3----|

   S  S  S  S  S  S  S  S  S  S  S  S  S  S  S  S
|-13p12-------13p12-15p12-13p12-------13h17-15h18--|
|-------13----------------------13-----------------|
|----------12----------------------12--------------|
|--------------------------------------------------|
|--------------------------------------------------|
|--------------------------------------------------|
|
|  S  S  S  S  S  S  E     S  S  S  S  S  S  E
|--------------------------------------------------|
|--------------------------------------------------|
|--5--5--5--5--5--5--5-----5--5--5--5--5--5--5-----|
|--5--5--5--5--5--5--5-----5--5--5--5--5--5--5-----|
|--3--3--3--3--3--3--3-----3--3--3--3--3--3--3-----|
|--------------------------------------------------|

                                                    1.
   S  S  S  S  S  S  S  S  S  S  S  S  S  S  S  S
|-15----------15----15h18p15----------------17h18-|
|----15----------15----------15----------15-------|
|-------15----------------------15----15----------|
|----------17----------------------17-------------|
|-------------------------------------------------|
|-------------------------------------------------|

 S  S  S  S  S  S  S  S  S  S  S  S  S  S  S  S
-------------------------------------------15-----||
-18-------17-------------18p17-------18p17----17-o||
----17-------17----------------17-----------------||
-------17-------17p15-------------17--------------||
----------------------17-------------------------o||
--------------------------------------------------||

|
|  S  S  S  S  S  S  E     S  S  S  S  S  S  S  S
|-------------------------------------------------|
|-------------------------------------------------|
|-------------------------------------------------|
|--5--5--5--5--5--5--5-----5--5--5--5--5--5--5--5-|
|--5--5--5--5--5--5--5-----5--5--5--5--5--5--5--5-|
|--5--5--5--5--5--5--5-----5--5--5--5--5--5--5--5-|

 S  S  S  S  E     E     S  S  S  S  S  S  S  S
--------------------------------------------------||
-------------------------------------------------o||
--3--3--3--3--3-----3-----5--5--5--5--5--5--5--5--||
--3--3--3--3--3-----3-----5--5--5--5--5--5--5--5--||
--1--1--1--1--1-----1-----3--3--3--3--3--3--3--3-o||
--------------------------------------------------||

  2.
   S  S  S  S  S  S  S  S  S  S  S  S  S  S  S  S
|-------------------------------------------17h18-||
|-18-------17-------------18p17-------18p17-------||
|----17-------17----------------17----------------||
|-------17-------17p15-------------17-------------||
|----------------------17-------------------------||
|-------------------------------------------------||
|
|  S  S  S  S  E     E     S  S  S  S  q
|-------------------------------------------------||
|-------------------------------------------------||
|--3--3--3--3--3-----3-----5--5--5--5--5----------||
|--3--3--3--3--3-----3-----5--5--5--5--5----------||
|--1--1--1--1--1-----1-----3--3--3--3--3----------||
|-------------------------------------------------||

 Pre-Verse
  D5(type 2)                  C5(type 2)  Bb5(type 2)                 C5(type
  Gtrs I, II
   S S S  S S S  S S S S  S S  S S  S S    S S S  S S S  S S S S  S S  E  E
   | | |  | | |  | | | |  | |  | |  | |    | | |  | | |  | | | |  | |  |  |
   / / /  / / /  / / / /  / /  / /  / /    / / /  / / /  / / / /  / /  /  /

  Gtr III
   ~~       ~~                             ~~~~~~~~~~~~~~~~~~~~~~~~~~~~~~~~~~
   E   S  S E    E   E    E    E    E      W
|---------------------------------------|-----------------------------------|
|------8h10p8--------8h==10---15---15---|-18--------------------------------|
|-10---9h10p9---10---9h==10---14---14---|-19--------------------------------|
|-12------------12----------------------|-----------------------------------|
|---------------------------------------|-----------------------------------|
|---------------------------------------|-----------------------------------|
|  E   S  S E    E   E    E    E    E      W
|
| Gtr IV
|                                          ~~       ~~
|  W                                       E   S  S E    E   E    E    E  E
|---------------------------------------|-----------------------------17-15-|
|---------------------------------------|------8h10p8--------8h==10---18-17-|
|---------------------------------------|-10---9h10p9---10---9h==10---------|
|---------------------------------------|-12------------12------------------|
|---------------------------------------|-----------------------------------|
|---------------------------------------|-----------------------------------|
                                           E   S  S E    E   E    E    E  E

  D5(type 2)                  C5(type 2)  Bb5(type 2)                 C5(type 2)
   S S S  S S S  S S S S  S S  S S  S S    S S S  S S S  S S S S  S S  E  E
   | | |  | | |  | | | |  | |  | |  | |    | | |  | | |  | | | |  | |  |  |
   / / /  / / /  / / / /  / /  / /  / /    / / /  / / /  / / / /  / /  /  /

 ~~~~       ~~                             ~~
   E   S  S E    E   E    E    E    E      W
|---------------------------------------|------------------------------------|
|------8h10p8--------8h==10---15---15---|-18---------------------------------|
|-10---9h10p9---10---9h==10---14---14---|-19---------------------------------|
|-12------------12----------------------|------------------------------------|
|---------------------------------------|------------------------------------|
|---------------------------------------|------------------------------------|
|  E   S  S E    E   E    E    E    E      W
|
|  ~~~~~~~~~~~~~~~~~~~~~~~~~~~~~~~~~~~~~~~~~~       ~~
|  W                                       E   S  S E    E   E    E    E  E
|-13------------------------------------|-----------------------------13-15--|
|-15------------------------------------|------8h10p8--------8h==10---15-17--|
|---------------------------------------|-10---9h10p9---10---9h==10----------|
|---------------------------------------|-12------------12-------------------|
|---------------------------------------|------------------------------------|
|---------------------------------------|------------------------------------|
   W                                       E   S  S E    E   E    E    E  E

  D5(type 2)                           C5(type Bb5(type 2)                      C5(type 2)D5(type
  Gtrs I, II
   S    S  S S  S S  S  S   S  S  S  S  E  E    S S  S  S  S S  S  S  S S  S  S  E  E
   |    |  | |  | |  |  |   |  |  |  |  |  |    | |  |  |  | |  |  |  | |  |  |  |  |
   /    /  / /  / /  /  /   /  /  /  /  /  /    / /  /  /  / /  /  /  / /  /  /  /  /

  Gtr III
                                                     ~~~
   E       E    E    S  S   E     S  S  E  E    E    H.                            +E
|-10-----------------------------------------|------------------------------------------|
|-11------11--------11-----------------------|------------------------------------------|
|---------12---12---12-12--------12----------|------------------------------------------|
|--------------12------12--12----12-12-------|-------8-----------------------------(8)\-|
|--------------------------13-------13-13p10-|--8---------------------------------------|
|--------------------------------------17-13-|------------------------------------------|
|  E       E    E    S  S   E     S  S  E  E
|
| Gtr IV
|                           ~~~~
|  H                       +H                   E    E     E    S  S  E    S  S  E  E
|--------------------------------------------|-10---------------------------------------|
|-10b11-------------------(10)---------------|-11---11---------11-----------------------|
|--------------------------------------------|------12----12---12-12------12------------|
|--------------------------------------------|------------12------12-12---12-12---------|
|--------------------------------------------|-----------------------13------13-13p10---|
|--------------------------------------------|----------------------------------17-13---|
                                                E    E     E    S  S  E    S  S  E  E

          2)                        C5(type 2)Bb5(type 2)                      C5(type 2)
   S   S  S S  S S  S  S  S S  S  S  E  E      S S  S  S  S S  S  S  S S  S  S  E  E
   |   |  | |  | |  |  |  | |  |  |  |  |      | |  |  |  | |  |  |  | |  |  |  |  |
   /   /  / /  / /  /  /  / /  /  /  /  /      / /  /  /  / /  /  /  / /  /  /  /  /

                                                    ~~~
   E      E    E    S  S  E    S  S  E  E      E    H.                            +E
|-10----------------------------------------|------------------------------------------|
|-11-----11--------11-----------------------|------------------------------------------|
|--------12---12---12-12------12------------|------------------------------------------|
|-------------12------12-12---12-12---------|-------8-----------------------------(8)\-|
|------------------------13------13-13p10---|--8---------------------------------------|
|-----------------------------------17-13---|------------------------------------------|
|  E      E    E    S  S  E    S  S  E  E
|
|  H..                                 +E      E    E     E    S  S  E    S  S  E  E
|-------------------------------------------|-10---------------------------------------|
|-------------------------------------------|-11---11---------11-----------------------|
|-------------------------------------------|------12----12---12-12------12------------|
|-------------------------------------------|------------12------12-12---12-12---------|
|--8-----------------------------------(8)\-|-----------------------13------13-13p10\--|
|-------------------------------------------|----------------------------------17-13\--|
                                               E    E     E    S  S  E    S  S  E  E

  Gtr I
  PM----------|     PM------|   PM--------|   PM--|   PM  PM|
  T   T T T T T S T T T T T T S T T T T T T S T T T T T T T T
|-------------------------------------------------------------||
|-------------------------------------------------------------||
|-------------------------------------------------------------||
|-7---7-7-7-7-7-8-7-5-5-5-5-5-7-------------5-------5---5-----||
|-------------------------------8-8-8-8-8-8---7-7-7---7---7-7-||
|-------------------------------------------------------------||
|
| Gtr II
|                                                     PM--|
| H..                                                 S   S
|-------------------------------------------------------------||
|-------------------------------------------------------------||
|-------------------------------------------------------------||
|-------------------------------------------------------------||
|-----------------------------------------------------0---0---||
|-----------------------------------------------------0---0---||

 Verse
  Gtrs I, II
  S S S S S S  S S  S S S S  S S S S    S S S S  S S S S  S S S S  S S  S S
|------------------------------------|----------------------------------------|
|------------------------------------|----------------------------------------|
|------------------------------------|--3-3-3-3--3-3-3-3----------------------|
|-0-0-0-0-0-0--0-0--5-5-5-5--8-8-8-8-|--3-3-3-3--3-3-3-3--3-3-3-3--3-3--3-3---|
|-0-0-0-0-0-0--0-0--5-5-5-5--5-5-5-5-|--1-1-1-1--1-1-1-1--3-3-3-3--3-3--3-3---|
|-0-0-0-0-0-0--0-0--5-5-5-5--5-5-5-5-|--------------------3-3-3-3--3-3--3-3---|
|
| Gtr V
| Q       E    E    Q        Q          Q        Q        Q        E    E
|------------------------------------|----------------------------------------|
|------------------------------------|----------------------------------------|
|-7-------9---10---15-------15-------|-15-------17-------10-------12---14-----|
|-x-------x----x----x--------x-------|--x--------x--------x--------x----x-----|
|-5-------7----8---13-------13-------|-13-------15--------8-------10---12-----|
|------------------------------------|----------------------------------------|

   S S S S  S S  S S  S S S S  S S  S S    E E  E  E  q  Q
|---------------------------------------|-------------------|
|---------------------------------------|-------------------|
|---------------------7-7-7-7--7-7--7-7-|-------------------|
|--7-7-7-7--7-7--7-7--8-8-8-8--8-8--8-8-|--2-2--2--2--3-----|
|--5-5-5-5--5-5--5-5--5-5-5-5--5-5--5-5-|--3-3--3--3--3-----|
|--4-4-4-4--4-4--4-4--------------------|--2-2--2--2--3-----|
|
|  Q        E    E    Q        E    E      Q    E  E  q  Q
|---------------------------------------|-------------------|
|---------------------------------------|-------------------|
|-14-------14---14---15-------14---15---|-12---12-12-14-----|
|--x--------x----x----x--------x----x---|--x----x--x--x-----|
|-12-------12---12---13-------12---13---|-10---10-10-12-----|
|---------------------------------------|-------------------|

  S S S S S S  S S  S S S S  S S S S    S S S S  S S S S  S S S S  S S  S S
|------------------------------------|----------------------------------------|
|------------------------------------|----------------------------------------|
|------------------------------------|--3-3-3-3--3-3-3-3----------------------|
|-0-0-0-0-0-0--0-0--5-5-5-5--8-8-8-8-|--3-3-3-3--3-3-3-3--3-3-3-3--3-3--3-3---|
|-0-0-0-0-0-0--0-0--5-5-5-5--5-5-5-5-|--1-1-1-1--1-1-1-1--3-3-3-3--3-3--3-3---|
|-0-0-0-0-0-0--0-0--5-5-5-5--5-5-5-5-|--------------------3-3-3-3--3-3--3-3---|
|
| Q       E    E    Q        Q          Q        Q        Q        E    E
|------------------------------------|----------------------------------------|
|------------------------------------|----------------------------------------|
|-7-------9---10---15-------15-------|-15-------17-------10-------12---14-----|
|-x-------x----x----x--------x-------|--x--------x--------x--------x----x-----|
|-5-------7----8---13-------13-------|-13-------15--------8-------10---12-----|
|------------------------------------|----------------------------------------|

   S S S S  S S  S S  S S S S  S S  S S    E E  E  E  S S S S  S S  S S
|---------------------------------------|--------------------------------||
|---------------------------------------|--------------------------------||
|---------------------7-7-7-7--7-7--7-7-|--------------------------------||
|--7-7-7-7--7-7--7-7--8-8-8-8--8-8--8-8-|--2-2--2--2--3-3-3-3--3-3--3-3--||
|--5-5-5-5--5-5--5-5--5-5-5-5--5-5--5-5-|--3-3--3--3--3-3-3-3--3-3--3-3--||
|--4-4-4-4--4-4--4-4--------------------|--2-2--2--2--3-3-3-3--3-3--3-3--||
|
|  Q        E    E    Q        E    E      Q    E  E  Q        E    E
|---------------------------------------|--------------------------------||
|---------------------------------------|--------------------------------||
|-14-------14---14---15-------14---15---|-12---12-12-14-------12---14----||
|--x--------x----x----x--------x----x---|--x----x--x--x--------x----x----||
|-12-------12---12---13-------12---13---|-10---10-10-12-------10---12----||
|---------------------------------------|--------------------------------||

 Pre-Chorus
   S S  S S S E    S  S S S S S E S    S S  S S  S E    S S S  E  E E
|-----------------------------------|---------------------------------|
|-----------------------------------|---------------------------------|
|--3-3--3-3-3-3----3----------------|---------------------------------|
|--3-3--3-3-3-3----3--1-1-1-1-1-1-1-|--2-2--2-2--2-2----2-3-3--3--3-3-|
|--1-1--1-1-1-1----1--1-1-1-1-1-1-1-|--3-3--3-3--3-3----3-3-3--3--3-3-|
|---------------------1-1-1-1-1-1-1-|--2-2--2-2--2-2----2-3-3--3--3-3-|
|
|  E    E   E    E    H                E    E    E    Q        Q.
|-----------------------------------|---------------------------------|
|-----------------------------------|---------------------------------|
|-10---10---9---10---12-------------|-12---12---10S==15-------14------|
|--x----x---x----x----x-------------|--x----x----x----x--------x------|
|--8----8---7----8---10-------------|-10---10----8S==13-------12------|
|-----------------------------------|---------------------------------|

  Gtrs I, II
  PM--------|     PM------|   PM----------------|       ~
  T T T T T T S T T T T T T S T T T T T T S T T T T T T S
|----------------------------------------------------------||
|----------------------------------------------------------||
|----------------------------------------------------------||
|-7-7-7-7-7-7-8-7-5-5-5-5-5-7---------------------5-5-8-8--||
|-----------------------------8-8-8-8-8-8-5-5-7-7----------||
|----------------------------------------------------------||

   Chorus
    Gtr IV
     S  S  S  S  S  S  S  S  S  S  S  S  S  S  S  S
||--------------------------------------------------|
||o-11p10-------11p10-13p10-11p10-------11p10-13p10-|
||--------10----------------------10----------------|
||-----------10----------------------10-------------|
||o-------------------------------------------------|
||--------------------------------------------------|
|
|   Gtrs I, II
|    S  S  S  S  S  S  E     S  S  S  S  S  S  E
||--------------------------------------------------|
||o-------------------------------------------------|
||--------------------------------------------------|
||---3--3--3--3--3--3--3-----3--3--3--3--3--3--3----|
||o--3--3--3--3--3--3--3-----3--3--3--3--3--3--3----|
||---3--3--3--3--3--3--3-----3--3--3--3--3--3--3----|

   S  S  S  S  S  S  S  S  S  S  S  S  S  S  S  S
|-13p12-------13p12-15p12-13p12-------13h17-15h18--|
|-------13----------------------13-----------------|
|----------12----------------------12--------------|
|--------------------------------------------------|
|--------------------------------------------------|
|--------------------------------------------------|
|
|  S  S  S  S  S  S  E     S  S  S  S  S  S  E
|--------------------------------------------------|
|--------------------------------------------------|
|--5--5--5--5--5--5--5-----5--5--5--5--5--5--5-----|
|--5--5--5--5--5--5--5-----5--5--5--5--5--5--5-----|
|--3--3--3--3--3--3--3-----3--3--3--3--3--3--3-----|
|--------------------------------------------------|

   S  S  S  S  S  S  S  S  S  S  S  S  S  S  S  S
|-15----------15----15h18p15----------------17h18-|
|----15----------15----------15----------15-------|
|-------15----------------------15----15----------|
|----------17----------------------17-------------|
|-------------------------------------------------|
|-------------------------------------------------|
|
|  S  S  S  S  S  S  E     S  S  S  S  S  S  S  S
|-------------------------------------------------|
|-------------------------------------------------|
|-------------------------------------------------|
|--5--5--5--5--5--5--5-----5--5--5--5--5--5--5--5-|
|--5--5--5--5--5--5--5-----5--5--5--5--5--5--5--5-|
|--5--5--5--5--5--5--5-----5--5--5--5--5--5--5--5-|

   S  S  S  S  S  S  S  S  S  S  S  S  S  S  S  S
|-------------------------------------------15-----||
|-18-------17-------------18p17-------18p17----17-o||
|----17-------17----------------17-----------------||
|-------17-------17p15-------------17--------------||
|----------------------17-------------------------o||
|--------------------------------------------------||
|
|  S  S  S  S  E     E     S  S  S  S  S  S  S  S
|--------------------------------------------------||
|-------------------------------------------------o||
|--3--3--3--3--3-----3-----5--5--5--5--5--5--5--5--||
|--3--3--3--3--3-----3-----5--5--5--5--5--5--5--5--||
|--1--1--1--1--1-----1-----3--3--3--3--3--3--3--3-o||
|--------------------------------------------------||

   Interlude
    Gtr III
      ~~~      ~~       ~~     ~~~
      E     S  E     S  E   S  E.      E     E
||------------------15-15-----------------------|
||o-----------------------/18-18------------18--|
||--/14---/17-17----------------------17--------|
||----------------------------------------------|
||o---------------------------------------------|
||----------------------------------------------|
|
|   Gtr IV
|     ~~~      ~~       ~~     ~~~
|     E     S  E     S  E   S  E.      E     E
||----------------------------------------------|
||o--------10-10---/13-13--10-10------10---/13\-|
||--/10-----------------------------------------|
||----------------------------------------------|
||o---------------------------------------------|
||----------------------------------------------|
|
|   Gtrs I, II
|     S S   S  S S   S  E   S  S  S S  S S   E
||----------------------------------------------|
||o---------------------------------------------|
||----------------------------------------------|
||----3-3---3--3-3---3--3---3--3--3-3--3-3---3--|
||o---3-3---3--3-3---3--3---3--3--3-3--3-3---3--|
||----3-3---3--3-3---3--3---3--3--3-3--3-3---3--|

               ~~~~~~~~~~~~~~~~~~~~
    E       S  Q.              +Q           +S     E
|----------------------------------------------------|
|--20------18-17--------------(17)---------(17)\-----|
|------------------------------------------------/14-|
|----------------------------------------------------|
|----------------------------------------------------|
|----------------------------------------------------|
|
|              ~~~                  ~~~
|   S  +S   S  Q          E     S   E.      +S     E
|-/12-(12)p10-----------/15----13--12------(12)\-----|
|-------------13-------------------------------------|
|------------------------------------------------/10-|
|----------------------------------------------------|
|----------------------------------------------------|
|----------------------------------------------------|
|
|   S   S   S  S  S S E     S   S   S  S S   S     E
|----------------------------------------------------|
|----------------------------------------------------|
|---5---5---5--5--5-5-5-----5---5---5--5-5---5-----5-|
|---5---5---5--5--5-5-5-----5---5---5--5-5---5-----5-|
|---3---3---3--3--3-3-3-----3---3---3--3-3---3-----3-|
|----------------------------------------------------|

                      ~~~
   E.      E.      E  Q.            E
|---------------------------------------|
|-----------------15s18-----------------|
|-15------14-----------------------14---|
|---------------------------------------|
|---------------------------------------|
|---------------------------------------|
|
|                     ~~~
|  E.      E.      E  Q.            E
|---------------------------------------|
|-----------------10s13-----------------|
|-12------10-----------------------10---|
|---------------------------------------|
|---------------------------------------|
|---------------------------------------|
|
|  S  S S  S  S S  E  S  S S S S S  S S
|---------------------------------------|
|---------------------------------------|
|---------------------------------------|
|--5--5-5--5--5-5--5--5--5-5-5-5-5--5-5-|
|--5--5-5--5--5-5--5--5--5-5-5-5-5--5-5-|
|--5--5-5--5--5-5--5--5--5-5-5-5-5--5-5-|

                  ~~~
   E.      E.     Q      E    E        E
|----------------------------17b18----17\----||
|---------------/20-----18------------------o||
|-15------14---------------------------------||
|--------------------------------------------||
|-------------------------------------------o||
|--------------------------------------------||
|
|                 ~~~
|  E.      E.     Q      E    S     S  E
|--------------------------------------------||
|---------------/17----------18h===20p18\---o||
|-12------10------------17-------------------||
|--------------------------------------------||
|-------------------------------------------o||
|--------------------------------------------||
|
|  S  S S  S  E   E S S  S S  S     S  S  S
|--------------------------------------------||
|-------------------------------------------o||
|--3--3-3--3--3---3-5-5--5-5--5-----5--5--5--||
|--3--3-3--3--3---3-5-5--5-5--5-----5--5--5--||
|--1--1-1--1--1---1-3-3--3-3--3-----3--3--3-o||
|--------------------------------------------||

   Bridge
    Gtr V
     E    S  E    S  E    S  E    S  S  S  E
||-------------------------------------------|
||o------------------------------------------|
||--10---14-14---17-17---15-15---14-14-15-14-|
||---x----x--x----x--x----x--x----x--x--x--x-|
||o--8---12-12---15-15---13-13---12-12-13-12-|
||-------------------------------------------|
|
|   Gtrs I, II
|    S S  S  S S  S  E    S  S S  S  S  S  E
||-------------------------------------------|
||o------------------------------------------|
||-------------------------------------------|
||---3-3--3--3-3--3--3----3--3-3--3--3--3--3-|
||o--3-3--3--3-3--3--3----3--3-3--3--3--3--3-|
||---3-3--3--3-3--3--3----3--3-3--3--3--3--3-|
|
|   Gtr VI
|    PM-----|     PM   PM------|     PM    ~~
|    S S  S  S S  S  S S  S  S S  S  S  S  E
||-------------------------------------------|
||o------------------------------------------|
||-------------2-----2------------2-----2----|
||-----------------------------------------3-|
||o--3-3--3--3----3----3--3--3-3-----3-------|
||-------------------------------------------|

  E    S  E    S  E    S  E    S  S  S  E
|------------------------------------------|
|------------------------------------------|
|-9---14-14---17-17---15-15---14-14-15-14--|
|-x----x--x----x--x----x--x----x--x--x--x--|
|-7---12-12---15-15---13-13---12-12-13-12--|
|------------------------------------------|
|
| S S  S  S S  S  E    S  S S  S  S  S  E
|------------------------------------------|
|------------------------------------------|
|-5-5--5--5-5--5--5----5--5-5--5--5--5--5--|
|-5-5--5--5-5--5--5----5--5-5--5--5--5--5--|
|-3-3--3--3-3--3--3----3--3-3--3--3--3--3--|
|------------------------------------------|
|
| PM-----|     PM   PM------|     PM    ~~
| S S  S  S S  S  S S  S  S S  S  S  S  E
|------------------------------------------|
|-----------3-----3------------3-----3-----|
|---------------------------------------5--|
|-5-5--5--5----5----5--5--5-5-----5--------|
|------------------------------------------|
|------------------------------------------|

  E    S  E    S  E    S  E    S  S  S  E
|-------------------------------------------|
|-------------------------------------------|
|-7---14-14---17-17---15-15---14-14-15-14---|
|-x----x--x----x--x----x--x----x--x--x--x---|
|-5---12-12---15-15---13-13---12-12-13-12---|
|-------------------------------------------|
|
| S S  S  S S  S  E    S  S S  S  S  S  S S
|-------------------------------------------|
|-------------------------------------------|
|-------------------------------------------|
|-5-5--5--5-5--5--5----5--5-5--5--5--5--5-5-|
|-5-5--5--5-5--5--5----5--5-5--5--5--5--5-5-|
|-5-5--5--5-5--5--5----5--5-5--5--5--5--5-5-|
|
| PM-----|     PM   PM------|     PM    ~~
| S S  S  S S  S  S S  S  S S  S  S  S  E
|-------------------------------------------|
|-------------------------------------------|
|-----------7-----7------------7-----7------|
|---------------------------------------5---|
|-5-5--5--5----5----5--5--5-5-----5---------|
|-------------------------------------------|

  E    S  E    S  E    S  E    S  S  S  E
|--------------------------------------------||
|-------------------------------------------o||
|-9---14-14---17-17---15-15---17-17-17-17----||
|-x----x--x----x--x----x--x----x--x--x--x----||
|-7---12-12---15-15---13-13---15-15-15-15---o||
|--------------------------------------------||
|
| S S  S  S E     E    S  S S  S  S  S  S S
|--------------------------------------------||
|-------------------------------------------o||
|-3-3--3--3-3-----3----5--5-5--5--5--5--5-5--||
|-3-3--3--3-3-----3----5--5-5--5--5--5--5-5--||
|-1-1--1--1-1-----1----3--3-3--3--3--3--3-3-o||
|--------------------------------------------||
|
| PM-----|     PM   PM------|     PM    ~~
| S S  S  S S  S  S S  S  S S  S  S  S  E
|-----------3-----3------------5-----5p=3----||
|-------------------------------------------o||
|-3-3--3--3----3----3--3--5-5-----5----------||
|--------------------------------------------||
|-------------------------------------------o||
|--------------------------------------------||

   Interlude
    Gtr III
      ~~~      ~~       ~~     ~~~
      E     S  E     S  E   S  E.      E     E
||------------------15-15-----------------------|
||o-----------------------/18-18------------18--|
||--/14---/17-17----------------------17--------|
||----------------------------------------------|
||o---------------------------------------------|
||----------------------------------------------|
|
|   Gtr IV
|     ~~~      ~~       ~~     ~~~
|     E     S  E     S  E   S  E.      E     E
||----------------------------------------------|
||o--------10-10---/13-13--10-10------10---/13\-|
||--/10-----------------------------------------|
||----------------------------------------------|
||o---------------------------------------------|
||----------------------------------------------|
|
|   Gtrs I, II
|     S S   S  S S   S  E   S  S  S S  S S   E
||----------------------------------------------|
||o---------------------------------------------|
||----------------------------------------------|
||----3-3---3--3-3---3--3---3--3--3-3--3-3---3--|
||o---3-3---3--3-3---3--3---3--3--3-3--3-3---3--|
||----3-3---3--3-3---3--3---3--3--3-3--3-3---3--|

               ~~~~~~~~~~~~~~~~~~~~
    E       S  Q.              +Q           +S     E
|----------------------------------------------------|
|--20------18-17--------------(17)---------(17)\-----|
|------------------------------------------------/14-|
|----------------------------------------------------|
|----------------------------------------------------|
|----------------------------------------------------|
|
|              ~~~                  ~~~
|   S  +S   S  Q          E     S   E.      +S     E
|-/12-(12)p10-----------/15----13--12------(12)\-----|
|-------------13-------------------------------------|
|------------------------------------------------/10-|
|----------------------------------------------------|
|----------------------------------------------------|
|----------------------------------------------------|
|
|   S   S   S  S  S S E     S   S   S  S S   S     E
|----------------------------------------------------|
|----------------------------------------------------|
|---5---5---5--5--5-5-5-----5---5---5--5-5---5-----5-|
|---5---5---5--5--5-5-5-----5---5---5--5-5---5-----5-|
|---3---3---3--3--3-3-3-----3---3---3--3-3---3-----3-|
|----------------------------------------------------|

                      ~~~
   E.      E.      E  Q.            E
|---------------------------------------|
|-----------------15s18-----------------|
|-15------14-----------------------14---|
|---------------------------------------|
|---------------------------------------|
|---------------------------------------|
|
|                     ~~~
|  E.      E.      E  Q.            E
|---------------------------------------|
|-----------------10s13-----------------|
|-12------10-----------------------10---|
|---------------------------------------|
|---------------------------------------|
|---------------------------------------|
|
|  S  S S  S  S S  E  S  S S S S S  S S
|---------------------------------------|
|---------------------------------------|
|---------------------------------------|
|--5--5-5--5--5-5--5--5--5-5-5-5-5--5-5-|
|--5--5-5--5--5-5--5--5--5-5-5-5-5--5-5-|
|--5--5-5--5--5-5--5--5--5-5-5-5-5--5-5-|

                  ~~~
   E.      E.     Q      E    E        E
|----------------------------17b18----17\----||
|---------------/20-----18------------------o||
|-15------14---------------------------------||
|--------------------------------------------||
|-------------------------------------------o||
|--------------------------------------------||
|
|                 ~~~
|  E.      E.     Q      E    S     S  E
|--------------------------------------------||
|---------------/17----------18h===20p18\---o||
|-12------10------------17-------------------||
|--------------------------------------------||
|-------------------------------------------o||
|--------------------------------------------||
|
|  S  S S  S  E   E S S  S S  S     S  S  S
|--------------------------------------------||
|-------------------------------------------o||
|--3--3-3--3--3---3-5-5--5-5--5-----5--5--5--||
|--3--3-3--3--3---3-5-5--5-5--5-----5--5--5--||
|--1--1-1--1--1---1-3-3--3-3--3-----3--3--3-o||
|--------------------------------------------||

 Guitar Solo/Outro
  Gtr VI
                      ~~                            ~~~~~
                          |----------3-----------|
    S  S  S  S  S  S  E  +S    S     S  S  S     S  E        +S     S
|-/13-------12----------------------------------13-15b17----(15)\-/13-|
|-----13-------13-------------------------15--------------------------|
|--------12-------12-------------------14-----------------------------|
|--------------------15-(15)\-12----15--------------------------------|
|---------------------------------------------------------------------|
|---------------------------------------------------------------------|
|
| Gtrs I, II
|   S  S  S  S  S  S  E   S       S     S     S     S     S   E
|---------------------------------------------------------------------|
|---------------------------------------------------------------------|
|---------------------------------------------------------------------|
|---3--3--3--3--3--3--3---3-------3-----3-----3-----3-----3---3-------|
|---3--3--3--3--3--3--3---3-------3-----3-----3-----3-----3---3-------|
|---3--3--3--3--3--3--3---3-------3-----3-----3-----3-----3---3-------|
|
| Gtr V
|   E     S  E     S  E   S       E           S     S     S   E
|---------------------------------------------------------------------|
|---------------------------------------------------------------------|
|--10----14-14----17-17--15------15----------14----14----15--14-------|
|---x-----x--x-----x--x---x-------x-----------x-----x-----x---x-------|
|---8----12-12----15-15--13------13----------12----12----13--12-------|
|---------------------------------------------------------------------|

   ~~                ~~
   E    S  e      S  H                   S  S
|-12---12-12\---/13h15------------------15h17b18-|
|------------------------------------------------|
|------------------------------------------------|
|------------------------------------------------|
|------------------------------------------------|
|------------------------------------------------|
|
|  S S  S  S  S   S  E  S  S S  S  S  S  E
|------------------------------------------------|
|------------------------------------------------|
|--5-5--5--5--5---5--5--5--5-5--5--5--5--5-------|
|--5-5--5--5--5---5--5--5--5-5--5--5--5--5-------|
|--3-3--3--3--3---3--3--3--3-3--3--3--3--3-------|
|------------------------------------------------|
|
|  E    S  E      S  E  S  E    S  S  S  E
|------------------------------------------------|
|------------------------------------------------|
|--9---14-14-----17-17-15-15---14-14-15-14-------|
|--x----x--x------x--x--x--x----x--x--x--x-------|
|--7---12-12-----15-15-13-13---12-12-13-12-------|
|------------------------------------------------|

   S      +S   S    E    S  E  S  E    S  S      +S   +S    S
|-17pb18-(17)p15\-/10h==12-13p10------------------------------|
|--------------------------------11------11b13==(11)r(11)\----|
|-------------------------------------10-------------------10-|
|-------------------------------------------------------------|
|-------------------------------------------------------------|
|-------------------------------------------------------------|
|
|  S       S   S    S S  S  E  S  S S  S  S       S    S    S
|-------------------------------------------------------------|
|-------------------------------------------------------------|
|-------------------------------------------------------------|
|--5-------5---5----5-5--5--5--5--5-5--5--5-------5----5----5-|
|--5-------5---5----5-5--5--5--5--5-5--5--5-------5----5----5-|
|--5-------5---5----5-5--5--5--5--5-5--5--5-------5----5----5-|
|
|  E           S    E    S  E  S  E    S  S       S    E
|-------------------------------------------------------------|
|-------------------------------------------------------------|
|--7----------14---14---17-17-15-15---14-14------15---14------|
|--x-----------x----x----x--x--x--x----x--x-------x----x------|
|--5----------12---12---15-15-13-13---12-12------13---12------|
|-------------------------------------------------------------|

                                          ~~~
   S  S  S  S  S  S  S  S  S  S  S  S  S  E.
|----------10-------12-------12----------15--------|
|-13p11-------11-------13-------13----13-----------|
|-------10-------10-------12-------14--------------|
|--------------------------------------------------|
|--------------------------------------------------|
|--------------------------------------------------|
|
|  S  S  S  S  E     E     S  S  S  S  S  S   S S
|--------------------------------------------------|
|--------------------------------------------------|
|--3--3--3--3--3-----3-----5--5--5--5--5--5---5-5--|
|--3--3--3--3--3-----3-----5--5--5--5--5--5---5-5--|
|--1--1--1--1--1-----1-----3--3--3--3--3--3---3-3--|
|--------------------------------------------------|
|
|  E     S  E     S  E     S  E     S  S  S   E
|--------------------------------------------------|
|--------------------------------------------------|
|--9----14-14----17-17----15-15----17-17-17--17----|
|--x-----x--x-----x--x-----x--x-----x--x--x---x----|
|--7----12-12----15-15----13-13----15-15-15--15----|
|--------------------------------------------------|

                              ~~
   S  S  S  S  S  S  S  S  S  E    +S     S  S  S S
|-15-------17-------15------------------------------|
|----18-------18-------18p15------------------------|
|-------17-------17----------14---(14)\-/10---------|
|-------------------------------------------10p=8---|
|-------------------------------------------------8-|
|---------------------------------------------------|
|
|  S  S  S  S  S  S  E     S  S S   S     S  S  E
|---------------------------------------------------|
|---------------------------------------------------|
|---------------------------------------------------|
|--3--3--3--3--3--3--3-----3--3-3---3-----3--3--3---|
|--3--3--3--3--3--3--3-----3--3-3---3-----3--3--3---|
|--3--3--3--3--3--3--3-----3--3-3---3-----3--3--3---|
|
|  E     S  E     S  E     S  E     S     S  S  E
|---------------------------------------------------|
|---------------------------------------------------|
|-10----14-14----17-17----15-15----14----14-15-14---|
|--x-----x--x-----x--x-----x--x-----x-----x--x--x---|
|--8----12-12----15-15----13-13----12----12-13-12---|
|---------------------------------------------------|

                              ~~~~~~~
                                               |---3----|
   S  S  S  S  S  S  S  S  S  S  +E      +S    S  S     S  S
|-13-------15-------13---------------------------------------|
|----15-------15-------15---------------------15-------------|
|-------14-------14-------14---------------------14----------|
|----------------------------15-(15)----(15)\----------15p12-|
|------------------------------------------------------------|
|------------------------------------------------------------|
|
|  S  S  S  S  S  S  E     S  S   S   S   S    S     E
|------------------------------------------------------------|
|------------------------------------------------------------|
|--5--5--5--5--5--5--5-----5--5---5---5---5----5-----5-------|
|--5--5--5--5--5--5--5-----5--5---5---5---5----5-----5-------|
|--3--3--3--3--3--3--3-----3--3---3---3---3----3-----3-------|
|------------------------------------------------------------|
|
|  E     S  E     S  E     S  E       S   S    S     E
|------------------------------------------------------------|
|------------------------------------------------------------|
|--9----14-14----17-17----15-15------14--14---15----14-------|
|--x-----x--x-----x--x-----x--x-------x---x----x-----x-------|
|--7----12-12----15-15----13-13------12--12---13----12-------|
|------------------------------------------------------------|

                                              ~~~
   |---3---|             |--3--|
   S  S    S  S  E       T  T  T  E     T  T  E.       T  T  T  T  T  T  T  T
|---------------15b18r===========18b20r====================================15-|
|------------15---------------15-------------18----------------------15h17----|
|---------14---------------15----------15h17----------------------14----------|
|-12h15-----------------17-------------------------------------15-------------|
|-----------------------------------------------------------17----------------|
|-----------------------------------------------------15-17-------------------|
|
|  S    S     S  S    S  S        E     S     S  S  S  S     S     S     S
|-----------------------------------------------------------------------------|
|-----------------------------------------------------------------------------|
|-----------------------------------------------------------------------------|
|--5----5-----5--5----5--5--------5-----5-----5--5--5--5-----5-----5-----5----|
|--5----5-----5--5----5--5--------5-----5-----5--5--5--5-----5-----5-----5----|
|--5----5-----5--5----5--5--------5-----5-----5--5--5--5-----5-----5-----5----|
|
|  E          S  E       S        E     S     E     S  S     S     E
|-----------------------------------------------------------------------------|
|-----------------------------------------------------------------------------|
|--7---------14-14------17-------17----15----15----14-14----15----14----------|
|--x----------x--x-------x--------x-----x-----x-----x--x-----x-----x----------|
|--5---------12-12------15-------15----13----13----12-12----13----12----------|
|-----------------------------------------------------------------------------|

   ~~                                      ~~
        |---3----|             |---3----|
   E    S  S     S  S  S  S S  S  S     S  Q           S  S
|-18---17s13---------------------13s===20-22----------18p17---|
|---------------13s10-------8s13------------------------------|
|---------------------10s=7-----------------------------------|
|-------------------------------------------------------------|
|-------------------------------------------------------------|
|-------------------------------------------------------------|
|
|  S S  S     S     E     E    S     S     S  S  S  S  S  S
|-------------------------------------------------------------|
|-------------------------------------------------------------|
|--3-3--3-----3-----3-----3----5-----5-----5--5--5--5--5--5---|
|--3-3--3-----3-----3-----3----5-----5-----5--5--5--5--5--5---|
|--1-1--1-----1-----1-----1----3-----3-----3--3--3--3--3--3---|
|-------------------------------------------------------------|
|
|  E    S     E        S  E    S     E        S  S  S  E
|-------------------------------------------------------------|
|-------------------------------------------------------------|
|--9---14----14-------17-17---15----15-------17-17-17-17------|
|--x----x-----x--------x--x----x-----x--------x--x--x--x------|
|--7---12----12-------15-15---13----13-------15-15-15-15------|
|-------------------------------------------------------------|

                                  ~~~~
   E    S  E    S  E  S  E    S   S   S  S  S
|-17s===6--6s==15-15s=5p=3s==15-[15]-15p13-13-|
|---------------------------------------------|
|---------------------------------------------|
|---------------------------------------------|
|---------------------------------------------|
|---------------------------------------------|
|
|  S S  S  S S  S  E  S  S S  S   S   S  E
|---------------------------------------------|
|---------------------------------------------|
|---------------------------------------------|
|--3-3--3--3-3--3--3--3--3-3--3---3---3--3----|
|--3-3--3--3-3--3--3--3--3-3--3---3---3--3----|
|--3-3--3--3-3--3--3--3--3-3--3---3---3--3----|
|
|  E    S  E    S  E  S  E    S   S   S  E
|---------------------------------------------|
|---------------------------------------------|
|-10---14-14---17-17-15-15---14--14--15-14----|
|--x----x--x----x--x--x--x----x---x---x--x----|
|--8---12-12---15-15-13-13---12--12--13-12----|
|---------------------------------------------|

            \2______/
                        ~~
   S  S  S  E      +S   H                   S  S
|-13-------17-----(17)-15------------------13-15-|
|----15------------------------------------------|
|-------14---------------------------------------|
|------------------------------------------------|
|------------------------------------------------|
|------------------------------------------------|
|
|  S  S  S  S   S   S   E  S  S S  S  S  S  E
|------------------------------------------------|
|------------------------------------------------|
|--5--5--5--5---5---5---5--5--5-5--5--5--5--5----|
|--5--5--5--5---5---5---5--5--5-5--5--5--5--5----|
|--3--3--3--3---3---3---3--3--3-3--3--3--3--3----|
|------------------------------------------------|
|
|  E     S  E       S   E  S  E    S  S  S  E
|------------------------------------------------|
|------------------------------------------------|
|--9----14-14------17--17-15-15---14-14-15-14----|
|--x-----x--x-------x---x--x--x----x--x--x--x----|
|--7----12-12------15--15-13-13---12-12-13-12----|
|------------------------------------------------|

                                           \0.5
              ~~~~     ~~
   E      S   E     S  Q         S    S   +S     S  S  S
|-15\-------[17]------18-------(18)-(18)-(18)------15h17-|
|-------/15--------15-----------------x---------15-------|
|--------------------------------x-----------------------|
|--------------------------------------------------------|
|--------------------------------------------------------|
|--------------------------------------------------------|
|
|  S  S   S   S  S  S  E  S  S   S    S    S     S  S  S
|--------------------------------------------------------|
|--------------------------------------------------------|
|--------------------------------------------------------|
|--5--5---5---5--5--5--5--5--5---5----5----5-----5--5--5-|
|--5--5---5---5--5--5--5--5--5---5----5----5-----5--5--5-|
|--5--5---5---5--5--5--5--5--5---5----5----5-----5--5--5-|
|
|  E      S   E     S  E  S  E        S    S     S  E
|--------------------------------------------------------|
|--------------------------------------------------------|
|--7-----14--14----17-17-15-15-------14---14----15-14----|
|--x------x---x-----x--x--x--x--------x----x-----x--x----|
|--5-----12--12----15-15-13-13-------12---12----13-12----|
|--------------------------------------------------------|

                                          \1_________________/
           ~~             ~~~~                         ~~
   E    S  E    S  S     +E      +S    S  E       +S   E     a    a  a
|-18s==13s20------20b22-(20)----(20)\-22-22------(22)-22---(22)-(22)---|
|--------------18-------------------------------------------------x----|
|--------------------------------------------------------------------x-|
|----------------------------------------------------------------------|
|----------------------------------------------------------------------|
|----------------------------------------------------------------------|
|
|  S S  S  S E     E          S   S    S  S    S   S   S S
|----------------------------------------------------------------------|
|----------------------------------------------------------------------|
|--3-3--3--3-3-----3----------5---5----5--5----5---5---5-5-------------|
|--3-3--3--3-3-----3----------5---5----5--5----5---5---5-5-------------|
|--1-1--1--1-1-----1----------3---3----3--3----3---3---3-3-------------|
|----------------------------------------------------------------------|
|
|  E    S  E    S  E          S   E       S    S   S   E
|----------------------------------------------------------------------|
|----------------------------------------------------------------------|
|--9---14-14---17-17---------15--15------17---17--17--17---------------|
|--x----x--x----x--x----------x---x-------x----x---x---x---------------|
|--7---12-12---15-15---------13--13------15---15--15--15---------------|
|----------------------------------------------------------------------|

                                                      ~~
   S  S  S     S  S  S     S  S  S     S  S  S  S  S  E
|----------------17s18b20----------------17s20s17s20s17-|
|----18s20b22----------------18s20b22-------------------|
|-17----------17----------17----------17----------------|
|-------------------------------------------------------|
|-------------------------------------------------------|
|-------------------------------------------------------|
|
|  S  S  S     S  S  S     E     S     S  S  S  S  S  E
|-------------------------------------------------------|
|-------------------------------------------------------|
|-------------------------------------------------------|
|--3--3--3-----3--3--3-----3-----3-----3--3--3--3--3--3-|
|--3--3--3-----3--3--3-----3-----3-----3--3--3--3--3--3-|
|--3--3--3-----3--3--3-----3-----3-----3--3--3--3--3--3-|
|
|  E     S     E     S     E     S     E     S  S  S  E
|-------------------------------------------------------|
|-------------------------------------------------------|
|-10----14----14----17----17----15----15----14-14-15-14-|
|--x-----x-----x-----x-----x-----x-----x-----x--x--x--x-|
|--8----12----12----15----15----13----13----12-12-13-12-|
|-------------------------------------------------------|

                                               ~~
   S  S  S  S  S  S   S  S  S   S  S  S  S  S  E
|------------------------------------------------|
|------------------------------------------------|
|----17s19--------------17s24\-------------------|
|-17----------17s22\-17-----------19s22s19s22s19-|
|----------19------------------19----------------|
|------------------------------------------------|
|
|  S  S  S  S  S  S   E     S   S  S  S  S  S  E
|------------------------------------------------|
|------------------------------------------------|
|--5--5--5--5--5--5---5-----5---5--5--5--5--5--5-|
|--5--5--5--5--5--5---5-----5---5--5--5--5--5--5-|
|--3--3--3--3--3--3---3-----3---3--3--3--3--3--3-|
|------------------------------------------------|
|
|  E     S  E     S   E     S   E     S  S  S  E
|------------------------------------------------|
|------------------------------------------------|
|--9----14-14----17--17----15--15----14-14-15-14-|
|--x-----x--x-----x---x-----x---x-----x--x--x--x-|
|--7----12-12----15--15----13--13----12-12-13-12-|
|------------------------------------------------|

   S  S  S   S  S  S  S  S  S  S  S  S  S  S  S  S
|--------------------------------------------------|
|--------------------------------------------------|
|----19s24\-------------19s24-------------19h21p19-|
|-20-----------20s24s20----------19h20h22----------|
|-----------22----------------22-------------------|
|--------------------------------------------------|
|
|  S  S  S   S  S  S  E     S  S  S  S  S  S  S  S
|--------------------------------------------------|
|--------------------------------------------------|
|--------------------------------------------------|
|--5--5--5---5--5--5--5-----5--5--5--5--5--5--5--5-|
|--5--5--5---5--5--5--5-----5--5--5--5--5--5--5--5-|
|--5--5--5---5--5--5--5-----5--5--5--5--5--5--5--5-|
|
|  E     S   E     S  E     S  E     S  S  S  E
|--------------------------------------------------|
|--------------------------------------------------|
|--7----14--14----17-17----15-15----14-14-15-14----|
|--x-----x---x-----x--x-----x--x-----x--x--x--x----|
|--5----12--12----15-15----13-13----12-12-13-12----|
|--------------------------------------------------|

   ~~~~~~~~~~~~~~~~~~~
   Q          E     S  +S    T T  T T T T  T  T  T  T  T  T  T  T  T  T
|-----------------------------------------------------------------------|
|-18---------20----18-(18)\------------------------------------------15-|
|--------------------------------------------------------------14h15----|
|--------------------------------------------------------15h17----------|
|-----------------------------------5h7h8s13-12-13s15-17----------------|
|----------------------------5h7h=8-------------------------------------|
|
|  S S  S  S  E     E        S    S   S    S     S     S     S     S
|-----------------------------------------------------------------------|
|-----------------------------------------------------------------------|
|--3-3--3--3--3-----3--------5----5---5----5-----5-----5-----5-----5----|
|--3-3--3--3--3-----3--------5----5---5----5-----5-----5-----5-----5----|
|--1-1--1--1--1-----1--------3----3---3----3-----3-----3-----3-----3----|
|-----------------------------------------------------------------------|
|
|  E    S  E     S  E        S    E              E.          E
|-----------------------------------------------------------------------|
|-----------------------------------------------------------------------|
|--9---14-14----17-17-------15---15-------------17----------17----------|
|--x----x--x-----x--x--------x----x--------------x-----------x----------|
|--7---12-12----15-15-------13---13-------------15----------15----------|
|-----------------------------------------------------------------------|

  Gtrs III, IV
   H              H         H                     H        W
   |              |         |                     |
   o              /         /                     /

                  ~~        ~~                    ~~~~~~~~~~~~
                                |--3--|  |--3--|
   Q      Q       Q   Q     Q   S  S  S  S  S  S  H       +W
|-17b20--17pb20r=17--17s=|=13--------------10h12-13----|-(13)----*|
|------------------------|--------------13-------------|---------*|
|------------------------|-----10-12h13----------------|---------*|
|------------------------|-----------------------------|---------*|
|------------------------|-----------------------------|---------*|
|------------------------|-----------------------------|---------*|
|
|  H              H         H                     H       +W
|------------------------|-----------------------------|---------*|
|------------------------|-----------------------------|---------*|
|------------------------|-----------------------------|---------*|
|--3--------------3------|--3---------------------3----|--(3)----*|
|--3--------------3------|--3---------------------3----|--(3)----*|
|--3--------------3------|--3---------------------3----|--(3)----*|
|
|  W                        H                     H       +W
|------------------------|-----------------------------|---------*|
|------------------------|-----------------------------|---------*|
|-14---------------------|-14--------------------14----|-(14)----*|
|--x---------------------|--x---------------------x----|---------*|
|-12---------------------|-12--------------------12----|-(12)----*|
|------------------------|-----------------------------|---------*|

deva | May 24th, 2012 | No Comments
      Pin It
[fbcomments]






Please note: Comment moderation is enabled and may delay your comment. There is no need to resubmit your comment.